From: [email protected] ([email protected])
Subject: TAB: Barracuda & Love Alive - Heart
+++++++++++++++++++++++++++++++++++++++++++++++++++++++++++++++++++++++++++++

LOVE ALIVE - Easy part over the early verses
h = hammer on
p = pull off
------------------------------------------------------
------------------------------------------------------
------------------------------------------------------ Repeat as
--4-5-7--7--5h7p5-4-5--5--4h5p4-2-4--4--2h4p2-0-2--2-- needed
------------------------------------------------------
------------------------------------------------------
Same song, that beautiful interlude (saw them in concert long ago, and
Nancy Wilson played this with a metal guitar)
Ann sings "...I gotta keep my love...", then Nancy plays
--0---0---0--0--0--0--0---0---0--0--0-0-0-0-0-0--
--8---8---8--10-10-10-10--10--5--5--5-7-7-7-7-7--
--9---9---9--11-11-11-11--11--6--6--6-9-9-9-9-9-- 6x
--10--10--10-12-12-12-12--12--7--7--7-9-9-9-9-9--
-------------------------------------------------
-------------------------------------------------
(This is the approximate rhythm; listen to the recording to
get it right!)
Play 6 times, then play the following transition part 3 times:
E E Em7 Em7 A A E G D
--0---0----0---0----0---0--0-0----3--2--
--0---0----3---3----2---2--3-0----0--3--
--1---1----0---0----2---2--2-1----0--2-- 3x
--2---2----2---2----2---2--2-2----0--0--
--2---2----2---2----0---0----2----2-----
--0---0----0---0----0---0----0----3-----
(Again, this is the approximate rhythm; there is also some
picking going on which I haven't shown)
Ann then resumes "You're up there under the spotlight..."
+++++++++++++++++++++++++++++++++++++++++++++++++++++++++++++++++++++++++++++




Ваше мнение



Капча