From: [email protected]
Subject: Dreamboat Annie TAB
To be honest, I was disappointed to find little Heart tabs in the
archives, and I thought I would post a Heart song that I figured
out by ear the other day..
Anyway, what follows is what I have learned off the HEART: The Road
Home CD by ear, and if ANYONE knows any more Heart songs, please
post them! ;)
DREAMBOAT ANNIE
by Heart
off the "Heart: The Road Home" CD
All rights reserved by Heart
Translation (by ear) by Brian McDonald
Dm Dm
e|------1---------||-------0-----3-----0------------------------------------
B|---------3-----:||---------3-----3-----2----------------------------------
G|----2------2----||-----2-----2-----2--------------------------------------
D|-0--------------||--0-----------------------------------------------------
A|---------------:||--------------------------------------------------------
E|----------------||--------------------------------------------------------
(repeat 4x)
Dm G C
e|------1------|-----1------|-----3----|-----3-----|-----------|------------
B|---------3---|--------3---|-------0--|-------0---|----3----3-|----1-----1-
G|----2------2-|---2------2-|---------0|---------0-|------0----|------0-----
D|-0-----------|0-----------|----------|-----------|---2----0--|--2-----0---
A|-------------|------------|---2------|---2-------|-3---------|3-----------
E|-------------|------------|-3--------|-3---------|-----------|------------
Head_ing out__ this morning In__to the sun
C Dm G
e|-----------|-------------|------1-----|-----1-----|-----3-----|----3------
B|----3-----3|-----1-----1-|--------3---|-------3---|-------0---|------0----
G|------0----|-------0-----|----2-----2-|---2-----2-|---------0-|--------0--
D|---2----2--|---2-----2---|--0---------|-0---------|-----------|-----------
A|-3---------|-3-----------|------------|-----------|---2-------|--2--------
E|-----------|-------------|------------|-----------|-3---------|3----------
Rid__ing on the diamond waves
C Am Em Em
e|-------------|------------|-------------|--------------|--------------0----
B|-----3-----3-|----1-----1-|------1-----1|-----0-----0--|---0-----------0--0
G|-------0-----|------0-----|--------2----|-------2------|-----0---0-------0-
D|---2-----2---|--2-----2---|----2-----2--|---2-----2----|-------2-----------
A|-3-----------|3-----------|--0----------|-0------------|--2----------2-----
E|-------------|------------|-------------|--------------|0----------0-------
Little darling one Warm__ wind___ caress her
Am Dm G
e|-------------|------------------------|-----1-----|-----1----|----3-------
B|------0------|-----0------1-----0-----|-------3---|-------3--|------0---0-
G|--------2---2|-------2------2-----2---|---2-----2-|---2-----2|--------0---
D|----2-----2--|---2-----2------2-----2-|-0---------|-0--------|------------
A|--0----------|-0----------------------|-----------|----------|--2---------
E|-------------|------------------------|-----------|----------|3-----------
Her lover it seems__ Oh annie___ dreamboat annie
G Am
e|-----3-------|-------------|----------------------------------------------
B|-------0---0-|-----0-------|-----0-----1-----0----------------------------
G|---------0---|-------2---2-|-------2-----2-----2--------------------------
D|-------------|---2-----2---|---2-----2-----2-----2------------------------
A|---2---------|-0-----------|-0--------------------------------------------
E|-3-----------|-------------|----------------------------------------------
Little ship of dreams..

Anyway, you get the point.. the song pretty much continues on with the
same picking styles and chords, and unfortunately, I don't know any solos
or flute solos! ;)
Again, if anyone knows any other songs such as Alone, Sweet Dreams, Mistral
Wind, Stranded, etc, please post them or send them to my mailbox..
Thanks again, and have fun!
-----
"I wonder if this thing is on?!"




Ваше мнение



Капча