m: "Stephen D. Burd"
Date: Fri, 1 May 1998 11:11:20 -0700
Subject: h/heart/crazy_on_you.crd
Crazy On You
Dreamboat Annie (Heart)
Intro:
(strummed acoustic)
Am F Am F
(add Lead #1)
Am F Am F
Am G F
Am C
We may still have time, we might still get by
Dm7 E7
Every time I think about it I want to cry
Am C
With bombs and the devils and the kids keep coming
Dm7 E7 Am Am D Am Am D
Nowhere to breathe easy no time to be young
F G C F
But I tell myself that I'm doing all right
Dm7 E7
There's nothing left to do tonight
(add Lead #1 to Chorus)
Am F
But go crazy on you
Am F
Crazy on you
Am G F
Let me go crazy crazy on you
Am C
My love is the evening breeze touching your skin
Dm7 E7
The gentle sweet singing of leaves in the wind
Am C
The whisper that calls after you in the night
Dm7 E7 Am Am D Am Am D
And kisses your ear in the early light
F G C F
And you don't need to wonder you're doing fine
Dm7 E7
And my love the pleasure's mine
(add Lead #1 to Chorus)
Am F
Let me go crazy on you
Am F
Crazy on you
Am G F Am
Let me go crazy crazy on you
F#m7 Bm7
Wild man's world is crying in pain
C#m7 D
What're you going to do - everbody's insane
C#m7 D
So afraid of one who's so afraid of you
C#m7 D
What're you going to do?
A
E E/F# E/G# E/A
(add Lead #1 to Chorus)
Am F
Crazy on you
Am F
Crazy on you
Am G F
Let me go crazy crazy on you
Am C
I was a willow last night in my dream
Dm7 E7
I bent down over a clear running stream
Am C
I sang you a song that I heard up above
Dm7 E7
And you kept me alive with your sweet flowing love
(add Lead #1 to Chorus)
Am F
Crazy on you
Am F
Crazy on you
Am G F Am
Let me go crazy crazy on you
Am F
Crazy on you
Am F
Crazy on you
Am G F Am
Let me go crazy crazy on you
(Add Lead #2 over next two lines of chords)
Am F Am F
Am G F Am
(Add Lead #3 over next two lines of chords)
F#m7 Bm7 C#m7 D
C#m7 D C#m7 D
A
E E/F# E/G# E/A
(add Lead #1 to Chorus)
Am F
Crazy on you
Am F
Crazy on you
Am G F
Let me go crazy crazy on you
Lead #1
e------------------------------------------------------------
b------------------------------------------------------------
g------------------------------------------------------------
d-----2-0-------------------------2-0------------------------
a-0-------3-2-0-----------------0-----3-2-0------------------
E---------------1-----------3---------------1-----------3----
e------------------------------------------------------------
b------------------------------------------------------------
g------------------------------------------------------------
d-----2-0-----------2-0-----------2-0------------------------
a-0-------3-2-0---------3-2-0---------3-2---0----------------
E---------------3-------------1-----------3------------------
Lead #2
Sorry, I haven't worked this one out yet!
Lead #3
e------------------------------------------------------------
b------------------------------------------------------------
g---------------------------------------------4--------------
d-------------2---------------------------4-6---7------------
a---------2-4---5-----------------4---5-7--------------------
E-2---4-5----------------------------------------------------
e---------------------------------------------7--------------
b-----------------------------------------7-9---10-----------
g---------6-7-9-7-----------------6---7-9--------------------
d-6---7-9----------------------------------------------------
a------------------------------------------------------------
E------------------------------------------------------------
e-------10----------------10---------------------------------
b-10/12----12\10----10/12----12\10---------------------------
g------------------------------------------------------------
d------------------------------------------------------------
a------------------------------------------------------------
E------------------------------------------------------------
Transcribed by Stephen Burd ([email protected]) from Mushroom Records
vinyl recording MRS-5005, "Dreamboat Annie", Heart, 1976.




Ваше мнение



Капча