CRAZY ON YOU
by Heart
from the album ?Dreamboat Annie? (1976)
This is the correct way to play the acoustic intro for ?Crazy On You?.
The existing tab was fairly close but contained a few minor inaccuracies.
Use your thumb to play the constant open A-string that rings throughout,
but for the rest of the notes, use whatever combination of fingers you
find easiest. It may seem like a difficult piece at first, but if you
learn one section at a time and gradually increase your speed, it?s not
hard at all.
E-------------------------|
B----------3--1p0---------|
G---2-/-4-----2p0--0------|
D-------------------------|
A-------------------------|
E-------------------------|
E--------------------------------------------------------------------|
B---------3p1p0----1-------------------------------------------------|
G---------------2-----2--------------0----------4-------5--0--------|
D-----------------------------2-/-4-------------4-------5--0--------|
A---0--0-----------0-----0--------------0---0-------0----------------|
E--------------------------------------------------------------------|
E--------------------------------------------------------------------|
B---------3p1p0----1-------------------------------------------------|
G---------------2-----2--------------0---------------2---------------|
D-----------------------------2-/-4--------0------2------------------|
A---0--0-----------0-----0--------------0------3--------2------------|
E-----------------------------------------------------------0--------|
E---------------------------------------------|
B---------------------------------------------|
G---/4-------2-------0h1--------4p2p0---------|
D-------------------------------0-------------|
A---/5-------4-------2----------X-------------|
E--------0-------0---------0----3-------------|
E--------------------------------------------------------------------|
B---------3p1p0----1-------------------------------------------------|
G---------------2-----2--------------0----------4-------5--0--------|
D-----------------------------2-/-4-------------4-------5--0--------|
A---0--0-----------0-----0--------------0---0-------0----------------|
E--------------------------------------------------------------------|
E----------------------------------------------------------------------|
B---------3p1p0----1---------------------------------------3-----------|
G---------------2-----2--------------0----------4------------------4---|
D-----------------------------2-/-4-------------4---4------------------|
A---0--0-----------0-----0--------------0---0-----------0------0-------|
E----------------------------------------------------------------------|
E------------5-------------------|
B---5p3------------0---------|
G--------4---------0---------|
D------------------0---------|
A---0--------0-------------------|
E--------------------------------|
E--------------------------------------------------------------------|
B---------3p1p0----1-------------------------------------------------|
G---------------2-----2--------------0----------4-------5--0--------|
D-----------------------------2-/-4-------------4-------5--0--------|
A---0--0-----------0-----0--------------0---0-------0----------------|
E--------------------------------------------------------------------|
E-------------------------------------------------------------------|
B---------3p1p0----1------------------------------------------------|
G---------------2-----2--------------0------------------------------|
D-----------------------------2-/-4---------0--------4--------2-----|
A---0--0-----------0-----0--------------0-------0h5------0h3--------|
E-------------------------------------------------------------------|
E--------------------------------------0----------------------|
B---------3p1p0----1----------------------3--1--0-------------|
G---------------2-----2-----0-------0--------------2--0-------|
D-----------------------------------------------------0-------|
A---0--0-----------0-----0------------------------------------|
E--------------------------------3----------------------------|
E-------------------------------------------------0-----------------|
B-----------3p1p0-----1-----------------------0-------0-------------|
G---2-------------2-------2---------0h1---1-------1-------1---------|
D---0---------------------0-------------------0-------0-------------|
A-----------------------------------------2---------------2---------|
E---2---2-------------2-------2-------0-----------------------------|
E------------------------------------------------------------------|
B---6------5h6p5p3-0------5--3-------------------------------------|
G----------------------5--------5---4------------------------------|
D---0-----------------------------------6--------------------------|
A------------------------------------------------------------------|
E-------------------------------------------0----------------------|




Ваше мнение



Капча