Standard E A D G B E
Transcription by: James M. Lord
Heart/Best of/Baracuda
(Arrangement For One Guitar)
[INTRO] [VERSE] [CHORUS#1] [VERSE] [CHORUS#2]
[BRIDGE+LEAD] [CHORUS#3] [LEAD RHY.] [OUTRO]
_________________________ _________________ __________________
| [INTRO] Gtr. I | Gtr. I |Gtr. II |
| [Play Twice] | [VERSE]..... | ....... |
e :|----------------------3--|-----------------|------------------|
B :|----------------------3--|-----------------|------------------|
G :|---3-4-----3-3-4---------|-----------------|------------------|
D :|-2-4-5---2-4-5-5---------|-2+++++5---------|-2+++++5----------|
A :|-2-4-5----------2-4-5-5--|-2+++++3---------|-2+++++3--57-79-|
E :|-0-2-3----------0-2-3----|-0+++++-----5-3--|-0+++++---35-57-|
|_________________________|_________________|__________________|
__________________________________ ____________________________________
| [CHORUS#1] | |
|..Your Laying .... | |
e :|----------------------------------|------------------------------------|
B :|--1-------------------------------|----------------17-15-12-10-8-----0-|
G :|--0-2-------------------------7-2-|---3-4-----------------9-7-4-|
D :|--2-2-2--------------------2--7-2-|-2-4-5---------------------0-|
A :|--3-0-2--7-9--10-9--7--7-5-2--5-0-|-2-4-5------------------------------|
E :|------0--8-10-11-10-8--5-3-0------|-0-2-3------------------------------|
|__________________________________|____________________________________|
__________________________________ _________________________________
| [CHORUS#2] | |
| | [Play Twice] |
e :|----------------------------------|---------------------------------|
B :|--1-------------------------------|---------------------------------|
G :|--0-2-------------------------7-2-|----------------------------2+++-|
D :|--2-2-2--------------------2--7-2-|-2-----79--2-----79--5++++2+++-|
A :|--3-0-2--7-9--10-9--7--7-5-2--5-0-|-2-57-57--2-57-57--3++++0+++-|
E :|------0--8-10-11-10-8--5-3-0------|-0-35------0-35----------------|
|__________________________________|_________________________________|
_______________ ___________________________________________________________
| [BRIDGE] | + [LEAD] |
| | |
|---------------|----------------------15~~~-14-15-17-------------------12++|
|---------------|15b(16)--(16)r(15)-12----------------14-15-17----------12++|
|---3-4-6----3-4|----------------------------------------------14-15-16-12++|
|-2-4-5-7--2-4-5|-----------------------------------------------------------|
|-2-4-5-7--2-4-5|-----------------------------------------------------------|
|-0-2-3-5--0-2-3|-----------------------------------------------------------|
| | |
| | ______|
|---------------|----------------------------------------------------|
|---------------|17-19-20-19-19--17-15-12--17-19-20-22-22-22b(23)-20-|
|---3-4-6----3-4|----------------------------------------------------|
|-2-4-5-7--2-4-5|----------------------------------------------------|
|-2-4-5-7--2-4-5|----------------------------------------------------|
|-0-2-3-5--0-2-3|----------------------------------------------------|
|_______________|____________________________________________________|
| |
|---------------|
|---------------|
|---3-4-6----3-4|
|-2-4-5-7--2-4-5|
|-2-4-5-7--2-4-5|
|-0-2-3-5--0-2-3|
|_______________|
__________________________________ _________________________________
| [CHORUS #3] | |
| if the Real thing...... | |
e :|----------------------------------|---------------------------------|
B :|--1-------------------------------|---------------------------------|
G :|--0-2-------------------------7-2-|---------------------------------|
D :|--2-2-2--------------------2--7-2-|-2++++++++++++++++++++++++-------|
A :|--3-0-2--7-9--10-9--7--7-5-2--5-0-|-2++++++++++++++++++++++++-------|
E :|------0--8-10-11-10-8--5-3-0------|-0++++++++++++++++++++++++-------|
|__________________________________|_________________________________|
__________________________________________________________________
| [LEAD RHY.] |
| |
e :|----12--14--12--12--x-5----------x-5-------------------12-12-15-12|
B :|----12--12--15--12--x-7----------x-7----------15-~-17~-15-14-13-12|
G :|----12--12--12--12--x-7------x-7-------14~-16~------------|
D :|-2--12--12--12--12--x-7----------x-7------------------------------|
A :|-2----------------------------------------------------|
E :|-0----------------------------------------------------------------|
_____________
| [OUTRO] 5X |
|-------------|
|-------------|
|----3--4--6--|
|-2--4--5--7--|
|-2--4--5--7--|
|-0--2--3--5--|
|_____________|




Ваше мнение



Капча