#-----------------------------------------------------------------------------#
#-- File created with Instab - http://www.pconline.com/~smcarey/instab.html --#
#-----------------------------------------------------------------------------#

Artist: Hatebreed
Title: Voice of Contention
Album: Rise of Brutality
Transcribed by: Jebus Crisp
Email: [email protected]
Tuning: CGCFAD

Another killer hatebreed song. x=palm mute

----------------------------------
----------------------------------
----------------------------------
----------------------------------
-0-1-0-00-0-4-3-0-1p0-1-0-00-04-03
-0-1-0-00-0-4-3-0-1p0-1-0-00-04-03
x x x x x

-------------|-------------------|---------------------
-------------|-------------------|---------------------
-------------|-------------------|---------------------
----7/87----|-13----13----10----|-13-13-13-13-13-12-10
-00-5/65-00-|-11-00-11-00-8-----|-11-11-11-11-11-10-8-
-00-------00-|----00----00-------|---------------------
play this 3 times this on the last time

--------------------------
--------------------------
--------------------------
--------------3-3--3-3-65
-0000-0000-0--1-1--1-1-43
-0000-0000-0--------------




Ваше мнение



Капча