Drop D
palm mute= *

Chorus:
D|----------------------------------|x1
A|----------------------------------|
F|----------------------------------|
C|-6-6-6-5---6-6-6-5---6-6-6-5--3-0-|
G|-6-6-6-5---6-6-6-5---6-6-6-5--3-0-|
C|-6-6-6-5---6-6-6-5---6-6-6-5--3-0-|

Verse 1
D|----------------------------------|----------------------------------------|x2
A|----------------------------------|----------------------------------------|
F|----------------------------------|----------------------------------------|
C|-6-6-6-5-0-5-33333--6-6-6-5-3-5-3-|--6-6-6-5-0-5-33333--6-6-6-5--3-0-------|
G|-6-6-6-5-0-5-33333--6-6-6-5-3-5-3-|--6-6-6-5-0-5-33333--6-6-6-5--3-0-------|
C|-6-6-6-5-0-5-33333--6-6-6-5-3-5-3-|--6-6-6-5-0-5-33333--6-6-6-5--3-0-------|

Chorus:
D|----------------------------------|x1
A|----------------------------------|
F|----------------------------------|
C|-6-6-6-5---6-6-6-5---6-6-6-5--3-0-|
G|-6-6-6-5---6-6-6-5---6-6-6-5--3-0-|
C|-6-6-6-5---6-6-6-5---6-6-6-5--3-0-|

Verse 1
D|----------------------------------|----------------------------------------|x2
A|----------------------------------|----------------------------------------|
F|----------------------------------|----------------------------------------|
C|-6-6-6-5-0-5-33333--6-6-6-5-3-5-3-|--6-6-6-5-0-5-33333--6-6-6-5--3-0-------|
G|-6-6-6-5-0-5-33333--6-6-6-5-3-5-3-|--6-6-6-5-0-5-33333--6-6-6-5--3-0-------|
C|-6-6-6-5-0-5-33333--6-6-6-5-3-5-3-|--6-6-6-5-0-5-33333--6-6-6-5--3-0-------|

Chorus:
D|----------------------------------|x2
A|----------------------------------|
F|----------------------------------|
C|-6-6-6-5---6-6-6-5---6-6-6-5--3-0-|
G|-6-6-6-5---6-6-6-5---6-6-6-5--3-0-|
C|-6-6-6-5---6-6-6-5---6-6-6-5--3-0-|

Verse 2
D|--------------------------------------------------------------------------|
A|--------------------------------------------------------------------------|
F|--------------------------------------------------------------------------|
C|-6-6-6--5-5-5--3-3--5-5-5--3-3-3-3-3---6-6-6--5-5-5--3-3--5-5-5-5-5-5-5-5-|
G|-6-6-6--5-5-5--3-3--5-5-5--3-3-3-3-3---6-6-6--5-5-5--3-3--5-5-5-5-5-5-5-5-|
C|-6-6-6--5-5-5--3-3--5-5-5--3-3-3-3-3---6-6-6--5-5-5--3-3--5-5-5-5-5-5-5-5-|
* * * * * * * * * * * * * * * * * * * * * * * * * * * * * * * *
D|------------------------------------------------------------|x1
A|------------------------------------------------------------|
F|------------------------------------------------------------|
C|-6-6-6--5-5-5--3-3--5-5-5--3-3-3-3-3---6-6-6--5-5-5--3-3--0-|
G|-6-6-6--5-5-5--3-3--5-5-5--3-3-3-3-3---6-6-6--5-5-5--3-3--0-|
C|-6-6-6--5-5-5--3-3--5-5-5--3-3-3-3-3---6-6-6--5-5-5--3-3--0-|
* * * * * * * * * * * * * * * * * * * * * * * *

Verse 2
D|--------------------------------------------------------------------------|
A|--------------------------------------------------------------------------|
F|--------------------------------------------------------------------------|
C|-6-6-6--5-5-5--3-3--5-5-5--3-3-3-3-3---6-6-6--5-5-5--3-3--5-5-5-5-5-5-5-5-|
G|-6-6-6--5-5-5--3-3--5-5-5--3-3-3-3-3---6-6-6--5-5-5--3-3--5-5-5-5-5-5-5-5-|
C|-6-6-6--5-5-5--3-3--5-5-5--3-3-3-3-3---6-6-6--5-5-5--3-3--5-5-5-5-5-5-5-5-|

D|------------------------------------------------------------|x2
A|------------------------------------------------------------|
F|------------------------------------------------------------|
C|-6-6-6--5-5-5--3-3--5-5-5--3-3-3-3-3---6-6-6--5-5-5--3-3--0-|
G|-6-6-6--5-5-5--3-3--5-5-5--3-3-3-3-3---6-6-6--5-5-5--3-3--0-|
C|-6-6-6--5-5-5--3-3--5-5-5--3-3-3-3-3---6-6-6--5-5-5--3-3--0-|

Verse 2
D|--------------------------------------------------------------------------|
A|--------------------------------------------------------------------------|
F|--------------------------------------------------------------------------|
C|-6-6-6--5-5-5--3-3--5-5-5--3-3-3-3-3---6-6-6--5-5-5--3-3--5-5-5-5-5-5-5-5-|
G|-6-6-6--5-5-5--3-3--5-5-5--3-3-3-3-3---6-6-6--5-5-5--3-3--5-5-5-5-5-5-5-5-|
C|-6-6-6--5-5-5--3-3--5-5-5--3-3-3-3-3---6-6-6--5-5-5--3-3--5-5-5-5-5-5-5-5-|

D|------------------------------------------------------------|x1
A|------------------------------------------------------------|
F|------------------------------------------------------------|
C|-6-6-6--5-5-5--3-3--5-5-5--3-3-3-3-3---6-6-6--5-5-5--3-3--0-|
G|-6-6-6--5-5-5--3-3--5-5-5--3-3-3-3-3---6-6-6--5-5-5--3-3--0-|
C|-6-6-6--5-5-5--3-3--5-5-5--3-3-3-3-3---6-6-6--5-5-5--3-3--0-|
* * * * * * * *

Chorus:
D|----------------------------------|x1
A|----------------------------------|
F|----------------------------------|
C|-6-6-6-5---6-6-6-5---6-6-6-5--3-0-|
G|-6-6-6-5---6-6-6-5---6-6-6-5--3-0-|
C|-6-6-6-5---6-6-6-5---6-6-6-5--3-0-|

That's it! Maybe it starts from 8887 ...
If You find any mistakes - [email protected]




Ваше мнение



Капча