hatebreed-remain nameless

Notation:
. - palm mute
R - abrupt stop (mute)
-> - indicates when to play a riff

Tuning: C (C F Bb Eb G C)


RIFF A:
-------

|---------------------------------|---------------------------------|
|---------------------------------|---------------------------------|
|---------------------------------|---------------------------------| GTR 1
|-9-------------------------------|---------------------------------|
|-7-----------2-----------3-------|-----8-----------6-------5-------|
|-----0---0---0---0---0---1---0---|-0---6---0---0---4---0---3---0---|
| . . . . . . . . . . |
| |
|---------------------------------|---------------------------------|
|---------------------------------|---------------------------------|
|---------------------------------|---------------------------------| GTR 2
|---------------------------------|---------------------------------|
|-2-------------------------------|-(2)-----------------------------|
|-0-------------------------------|-(0)-----------------------------|



|---------------------------------|---------------------------------|
|---------------------------------|---------------------------------|
|---------------------------------|---------------------------------| GTR 1
|-9-------------------------------|---------------------------------|
|-7-----------2-----------3-------|-----8-----------6-------5-------|
|-----0---0---0---0---0---1---0---|-0---6---0---0---4-------3-------|
| . . . . . . . . |
| |
|---------------------------------|---------------------------------|
|---------------------------------|---------------------------------|
|---------------------------------|---------------------------------| GTR 2
|---------------------------------|---------------------------------|
|---------------------------------|-------------------------5-------|
|---------------------------------|-------------------------3-------|



|---------------------------------|---------------------------------|
|---------------------------------|---------------------------------|
|---------------------------------|---------------------------------| GTR 1
|-9-------------------------------|---------------------------------|
|-7-----------2-----------3-------|-----8-----------6-------5-------|
|-----0---0---0---0---0---1---0---|-0---6---0---0---4---0---3---0---|
| . . . . . . . . . . |
| |
|---------------------------------|---------------------------------|
|---------------------------------|---------------------------------|
|---------------------------------|---------------------------------| GTR 2
|---------------------------------|---------------------------------|
|-2-------------------------------|-(2)-----------------------------|
|-0-------------------------------|-(0)-----------------------------|



|---------------------------------|---------------------------------|
|---------------------------------|---------------------------------|
|---------------------------------|---------------------------------| GTR 1
|-9-------------------------------|---------------------------------|
|-7-----------2-----------3-------|-----8-----------6-------5-------|
|-----0---0---0---0---0---1---0---|-0---6---0---0---4-------3-------|
| . . . . . . . . |
| |
|---------------------------------|---------------------------------|
|---------------------------------|---------------------------------|
|---------------------------------|---------------------------------| GTR 2
|-X------------------------------|---------------------------------|
|-X------------------------------|-----------------6-------5-------|
|---------------------------------|-----------------4-------3-------|


-> RIFF A x 1


RIFF B:
-------

(Same as GTR 1 of RIFF A, but played on GTR 1 & 2)

|---------------------------------|---------------------------------|
|---------------------------------|---------------------------------|
|---------------------------------|---------------------------------| GTRS
|-9-------------------------------|---------------------------------| 1 & 2
|-7-----------2-----------3-------|-----8-----------6-------5-------|
|-----0---0---0---0---0---1---0---|-0---6---0---0---4---0---3---0---|
. . . . . . . . . .

|---------------------------------|---------------------------------|
|---------------------------------|---------------------------------|
|---------------------------------|---------------------------------| GTRS
|-9-------------------------------|---------------------------------| 1 & 2
|-7-----------2-----------3-------|-----8-----------6-------5-------|
|-----0---0---0---0---0---1---0---|-0---6---0---0---4-------3-------|
. . . . . . . .


-> RIFF B x 5


RIFF C:
-------

|---------------------------------|---------------------------------|
|---------------------------------|---------------------------------|
|---------------------------------|---------------------------------| GTRS
|-9-------------------------------|---------------------------------| 1 & 2
|-7-----------2-----------3-------|-----8-----------6-------5-------|
|-----0---0---0---0---0---1---0---|-0---6---0---0---4---0---3---0---|
. . . . . . . . . .

|---------------------------------|---------------------------------|
|---------------------------------|---------------------------------|
|---------------------------------|---------------------------------| GTRS
|-9-------------------------------|---------------------------------| 1 & 2
|-7-----------2-----------3-------|-----8-----------11------8-------|
|-----0---0---0---0---0---1---0---|-0---6---0---0---9-------6-------|
. . . . . . . .


-> RIFF C x 1


RIFF D:
-------

|---------------------------------|---------------------------------|
|---------------------------------|---------------------------------|
|---------------------------------|---------------------------------| GTRS
|---------------------------------|---------------------------------| 1 & 2
|-6-------5---3---------------2---|---------------------------------|
|-4-------3---1-------0---0---0---|-----0---1---0---3---4---3---1---|
. . . . . . . . .


|---------------------------------|---------------------------------|
|---------------------------------|---------------------------------|
|---------------------------------|---------------------------------| GTRS
|---------------------------------|---------------------------------| 1 & 2
|-6-------5---3---------------2---|-------------------------5-------|
|-4-------3---1-------0---0---0---|-----0---1---0---3---4---3-------|
. . . . . . .

-> RIFF D x 3.75 + 1 bar rest


RIFF E:
-------

|---------------------------------|---------------------------------|
|---------------------------------|---------------------------------|
|---------------------------------|---------------------------------| GTRS
|---------------------------------|---------------------------------| 1 & 2
|---------2-------3---2-----------|---------2-------3---2-----------|
|-0---0---0-------1---0-------0---|-0---0---0-------1---0-------0---|
. . . . . .


|---------------------------------|---------------------------------|
|---------------------------------|---------------------------------|
|---------------------------------|---------------------------------| GTRS
|---------------------------------|-----------------13------10------| 1 & 2
|---------2-------3---2-------2---|-----------------11------8-------|
|-0---0---0-------1---0-------0---|---------0---0---11------8-------|
. . . .


-> RIFF E x 4


RIFF F:
-------

|---------------------------------|---------------------------------|
|---------------------------------|---------------------------------|
|---------------------------------|---------------------------------| GTRS
|-2-------------------------------|-8-------------------------------| 1 & 2
|-2-------------------------------|-6-------------------------------|
|-0-------------------------------|-6-------------------------------|


|---------------------------------|---------------------------------|
|---------------------------------|---------------------------------|
|---------------------------------|---------------------------------| GTRS
|-6-------------------------------|-3---------------2-------3-------| 1 & 2
|-4-------------------------------|-3---------------2-------3-------|
|-4-------------------------------|-1---------------0-------1-------|


-> RIFF F x 1


RIFF G:
-------

(Variation on RIFF A)

|---------------------------------|---------------------------------|
|---------------------------------|---------------------------------|
|---------------------------------|---------------------------------| GTR 1
|-9-------------------------------|---------------------------------|
|-7-----------2-----------3-------|-----8-----------6-------5-------|
|-----0---0---0---0---0---1---0---|-0---6---0---0---4---0---3---0---|
| . . . . . . . . . . |
| |
|---------------------------------|---------------------------------|
|---------------------------------|---------------------------------|
|---------------------------------|---------------------------------| GTR 2
|---------------------------------|---------------------------------|
|-2-------------------------------|-(2)-----------------------------|
|-0-------------------------------|-(0)-----------------------------|



|---------------------------------|---------------------------------|
|---------------------------------|---------------------------------|
|---------------------------------|---------------------------------| GTR 1
|-9-------------------------------|---------------------------------|
|-7-----------2-----------3-------|-----8-----------6-------5-------|
|-----0---0---0---0---0---1---0---|-0---6---0---0---4-------3-------|
| . . . . . . . . |
| |
|---------------------------------|---------------------------------|
|---------------------------------|---------------------------------|
|---------------------------------|---------------------------------| GTR 2
|---------------------------------|---------------------------------|
|---------------------------------|-------------------------5-------|
|---------------------------------|-------------------------3-------|



|---------------------------------|---------------------------------|
|---------------------------------|---------------------------------|
|---------------------------------|---------------------------------| GTR 1
|-9-------------------------------|---------------------------------|
|-7-----------2-----------3-------|-----8-----------6-------5-------|
|-----0---0---0---0---0---1---0---|-0---6---0---0---4---0---3---0---|
| . . . . . . . . . . |
| |
|---------------------------------|---------------------------------|
|---------------------------------|---------------------------------|
|---------------------------------|---------------------------------| GTR 2
|---------------------------------|---------------------------------|
|-2-------------------------------|-(2)-----------------------------|
|-0-------------------------------|-(0)-----------------------------|



|---------------------------------|---------------------------------|
|---------------------------------|---------------------------------|
|---------------------------------|---------------------------------| GTR 1
|---------------------------------|---------------------------------|
|---------------------------------|---------------------------------|
|-X/------------------------------|-(X/)----------------------------|
| |
| |
|---------------------------------|---------------------------------|
|---------------------------------|---------------------------------|
|---------------------------------|---------------------------------| GTR 2
|-X------------------------------|-(X)----------------------------|
|-X------------------------------|-(X)----------------------------|
|---------------------------------|---------------------------------|


-> RIFF G x 1
-> RIFF B x 3
-> RIFF C x 1
-> RIFF D x 3.75 + 1 bar rest


RIFF H:
-------

(Variation on RIFF E)

|---------------------------------|---------------------------------|
|---------------------------------|---------------------------------|
|---------------------------------|---------------------------------| GTR 1
|---------------------------------|---------------------------------|
|---------2-------3---2-----------|---------2-------3---2-----------|
|-0---0---0-------1---0-------0---|-0---0---0-------1---0-------0---|
| . . . . . . |
| |
|---------------------------------|---------------------------------|
|---------------------------------|---------------------------------|
|---------------------------------|---------------------------------| GTR 2
|---------------------------------|---------------------------------|
|-2-------------------------------|-(2)-----------------------------|
|-0-------------------------------|-(0)-----------------------------|



|---------------------------------|---------------------------------|
|---------------------------------|---------------------------------|
|---------------------------------|---------------------------------| GTR 1
|---------------------------------|-----------------13-----10-------|
|---------2-------3---2-------2---|-----------------11------8-------|
|-0---0---0-------1---0-------0---|---------0---0---11------8-------|
| . . . . |
| |
|---------------------------------|---------------------------------|
|---------------------------------|---------------------------------|
|---------------------------------|---------------------------------| GTR 2
|---------------------------------|-----------------13-----10-------|
|-(2)-----------------------------|-----------------11------8-------|
|-(0)-----------------------------|---------0---0---11------8-------|
. .


|---------------------------------|---------------------------------|
|---------------------------------|---------------------------------|
|---------------------------------|---------------------------------| GTR 1
|---------------------------------|---------------------------------|
|---------2-------3---2-----------|---------2-------3---2-----------|
|-0---0---0-------1---0-------0---|-0---0---0-------1---0-----------|
| . . . . |
| |
|---------------------------------|---------------------------------|
|---------------------------------|---------------------------------|
|---------------------------------|---------------------------------| GTR 2
|---------------------------------|---------------------------------|
|-(2)-----------------------------|---------------------------------|
|-(0)-----------------------------|---------------------------------|



|---------------------------------|---------------------------------|
|---------------------------------|---------------------------------|
|---------------------------------|---------------------------------| GTRS
|---------------------------------|-----------------13-----10-------| 1 & 2
|---------------------------------|-----------------11------8-------|
|-0---0---0---0---0---0---0---0---|-0---0---0---0---11------8-------|
| . . . . . . . . . . . .


-> RIFF H x 1
-> RIFF E x 2
-> RIFF F x 1




Ваше мнение



Капча