Artist: hatebreed
Song Title: puritan
Submitted by: mike downes
(C G C F A D)
|-----------------|
|------(x4)-------|
|-----------------|
|-1p0---3-3---0-1-|
|-1p0---3-3---0-1-|
|-1p0---3-3---0-1-|
|---------------------------------------------------------------|---|
|---------------------------------------------------------------|---|
|---------------------------------------------------------------|---|
|-1p0---3-3---0-1--0-0-0-000-00---1p0---3-3---0-1--0-0-0-0-0-0--|-0-|
|-1p0---3-3---0-1--0-0-0-000-00---1p0---3-3---0-1--0-0-0-0-0-0--|-0-|
|-1p0---3-3---0-1--0-0-0-000-00---1p0---3-3---0-1--0-0-0-0-0-0--|-0-|
PM . . . ... .. . . . . . .
|----------------------------------------|
|----------------------------------------|
|----------------------------------------|
|-3-1-0--3-1-0--3-1-0--3-1-0---3-3-3-3---|
|-3-1-0--3-1-0--3-1-0--3-1-0---1-1-1-1---|
|-3-1-0--3-1-0--3-1-0--3-1-0-------------|
|----------------------|
|----------------------|
|----------------------|
|-2/3-0-0-0000-0-0-0-0-|
|-2/3-0-0-0000-0-0-0-0-|
|-2/3-0-0-0000-0-0-0-0-|
PM . . .... . . . .
|--------------------------------------------------------------|
|--------------------------------------------------------------|
|--------------------------------------------------------------|
|--------------------------------------------------------------|
|-6------3------------2------0-0-0-0-0--0-0-0-0-0-0--0-0-0-0-0-|
|---5-6----6-5--3-5-6---6-5--0-0-0-0-0--0-0-0-0-0-0--0-0-0-0-0-|
PM . . . . . . . . . . . . . . . .
|----------------------------------------|
|----------------------------------------|
|----------------------------------------|
|-3-1-0--3-1-0--3-1-0--3-1-0---3-3-3-3---|
|-3-1-0--3-1-0--3-1-0--3-1-0---1-1-1-1---|
|-3-1-0--3-1-0--3-1-0--3-1-0-------------|
|----------------------|
|----------------------|
|----------------------|
|-2/3-0-0-0000-0-0-0-0-|
|-2/3-0-0-0000-0-0-0-0-|
|-2/3-0-0-0000-0-0-0-0-|
PM . . .... . . . .
|------------------------------|
|------------------------------|
|------------------------------|
|------------------------------|
|-6------3------------2------0-|
|---5-6----6-5--3-5-6---6-5--0-|
HATEBREED IS THE BEST BAND. THIS IS ONE OF THEIR GREATEST SONGS SO
IF YOU HAVE ANY QUESTIONS ABOUT THIS TAB E-MAIL ME AT
[email protected]
m/




Ваше мнение



Капча