Song: Perserverance
Artist: Hatebreed
I saw these guys @ Locobazooka in Boston and @ the OzzFest.
FUCKIN AMAZIN!!!
I know just about every Hatebreed song there is.
Tuning: Cb-Fb-Bb-Eb-Gb-Cb
(The tuning may be off)
.=palm mute
/or= slide
~= let ring
(Intro-both guitars)
Heavy Distortion
Cb------------------------:
Gb------------------------:
Eb--------------0-4-3-----:
Bb--------------0-2-5-----:
Fb--3--2-2-2-2---------2~-:
Cb--1--0-0-0-0---------0~-:
. . . .
Verse--both guitars(repete 8x)
Cb-------------------------------:
Gb-------------------------------:
Eb-------------------------------:
Bb-------------------------------:
Fb--76~--2-3-2~---54~--2-3-2~--:
Cb--54~--0-1-0~---32~--0-1-0~--:
Pre chorus/chorus--both guitars(repete 8x)
Cb---------------------------------------------------------
Gb---------------------------------------------------------
Eb---------------------------------------------------0-4-5-
Bb---------------------------------------------------0-2-3-
Fb--3-2-2--3-2-2--3-2-2--3-2-2--3-2-2--3-2-2--3-2-2--------
Cb--1-0-0--1-0-0--1-0-0--1-0-0--1-0-0--1-0-0--1-0-0--------
. . . . . . . . . . . . . .
Repete verse and chorus till end of song.
THATS IT!!!


Ваше мнение



Капча