mark my words

Verse Chorus
E|---------------------------------------------------------------|-----------|
B|---------------------------------------------------------(x )--|-----------|
G|--4-4-4-4-4-4--2-2-2--5-5-5---4-4-4-4-4-4--7-7-7--9-9-9--------|--4-4-4-4--|
D|--4-4-4-4-4-4--2-2-2--5-5-5---4-4-4-4-4-4--7-7-7--9-9-9--------|--4-4-4-4--|
A|--2-2-2-2-2-2--0-0-0--3-3-3---2-2-2-2-2-2--5-5-5--7-7-7--------|--2-2-2-2--|
E|---------------------------------------------------------------|-----------|

E|------------------------------|--------|--------|---------------------------|-----||
B|------------------------------|--(x )--|--------|---------------------(x )--|-----||
G|--7-7-7-7---5-4-4-4-4--5-4-7--|--------|--7--4--|--5-4--7-5--5-4--7-9-------|--4--||
D|--7-7-7-7---5-4-4-4-4--3-2-7--|--------|--7--4--|--5-4--7-5--3-2--7-9-------|--4--||
A|--5-5-5-5---3-2-2-2-2------5--|--------|--5--2--|--3-2--5-3-------5-7-------|--2--||
E|------------------------------|--------|--------|---------------------------|-----||




Ваше мнение



Капча