-------------------------------------------------------------------------------
Live for This - Hatebreed
-------------------------------------------------------------------------------
Tabbed by : CorprateAvenger
Email : [email protected]

Tuning : CGCFAD

Hatebreed : Live for This off Rise of Brutality

Badass song...got the first tab out =)

d|------------------------------||-------------------|
a|------------------------------||-------------------|
f|------------------------------||-------------------|
c|--7--5--8-------7-----7-------||-5-5-5-5-5-5-8-8-8-|
g|--5--3--6-------5-----5-------||-3-3-3-3-3-3-6-6-6-|
C|-----------0-0-0--0-0-0--0-0-0||-------------------|

d|-----------------------------------------|
a|-----------------------------------------|
f|-----------------------------------------|
c|-0---------------------------------------|
g|-0-------7-------6------4p0---4p0---4p0--|
C|-0--0-0--7--0-0--6--0-0-4p0-0-4p0-0-4p0--|
- - - - - - - -
d|--------------------------------------------------------|
a|--------------------------------------------------------|
f|--------------------------------------------------------|
c|--0-------0--------0-----5-5-5-5-5-8-8-8-8--------------|
g|--0-------0--------0-----3-3-3-3-3-6-6-6-6--------------|
C|--0-------0--------0------------------------------------|

There ya go, the notes are right on and those are all you need for the song, pretty simple eh?
Next time figure it out on your own!

===============================================================================




Ваше мнение



Капча