================================================================================
Title : I will be heard
Artist : Hatebreed
Album : ?
Transcribed by : By DimeBolt ([email protected])
[email protected]===============
Tune down 2 whole steps (C,F,Bb,Eb,G,C)
Especially in the first guitar bit there is variations in the start, I couldn't be
bothered noting when each start is, but it is mainly just either a -0-0- or a -3-0-
(You can figure out the intro bass lick from this) Alternate start
1||-----------------|-----------------|-----|-----------------||-------||
2||-----------------|-----------------|-----|-----------------||-------||
3||-----------------|-----------------|--|-----------------||-------||
4||-----------------|-----------------|-----|-----------------||-------||
5||-2-2-----5-3-2-3-|---5-2---5-3-2-3-|-----|---5-2---2-2-2-2-||-5-2---||
6||-0-0-----3-1-0-1-|---3-0---3-1-0-1-|-----|---3-0---0-0-0-0-||-3-0---||
1||-----------------|-----------------|-----------------|-----------------||
2||-----------------|-----------------|-----------------|-----------------||
3||-----------------|-----------------|-----------------|-----------------||
4||-----------------|---5-------------|-----------------|-----------------||
5||-5-7-5-8-----2---|---3-----2-------|-5-7-5-8-----2---|---3-----2-------||
6||-3-5-3-6---0-0---|-0-----0-0---0-0-|-3-5-3-6---0-0---|-0-1---0-0---0-0-||
2nd guitar
1||-----------------|-----|-----|-------------------||-------------------||
2||-----------------|-----|-----|-------------------||-------------------||
3||-----------------|--|--|-------------------||-2-----------------||
4||-----------------|-----|-----|-------------------||----3--2--6--5--3--||
5||-222-2-2-2-2-----|-----|-----|-3--2--3--6--5--3--||-------------------||
6||-000-0-0-0-0-----|-----|-----|-1--0--1--4--3--1--||-------------------||
Little middle part that has pick
scrapes and Intro bass lick Ending
1||---------------------------------||--------------||
2||---------------------------------||--------------||
3||---------------------------------||--------------||
4||-2-2---(2~)------2-2---(2~)------||--------------||
5||-2-2-------------2-2-------------||-2---2---2----||
6||-0-0-------------0-0-------------||-0---0---0----||




Ваше мнение



Капча