Final Prayer by Hatebreed
I'm not positive if this is all right, but it's a start...
Tune to Dropped C
Intro/Verse Pre-chorus
|------------------------------|--------|
|------------------------------|--------|
|-----------------------7-8-6--|-7-8-6--|
|-3--------------3------7-8-6--|-7-8-6--|
|-3--00001-0-1-0-3--00005-6-4--|-5-6-4--|
|-3--00001-0-1-0-3--0000-------|--------|
pm .... . . ....
Note: In the intro there's some wah shit and in the verse some rapid open notes.
Chorus
|--------------------------------|
|--------------------------------|
|--------------------------------|
|-0--3-2-0-------1-----2-3---7-8-|
|-0--3-2-0-0-0-0-1-0-0-2-3-0-5-6-|second and fourth time replace the last two chords with
|-0--3-2-0-0-0-0-1-0-0-2-3-0-7-8-|two palm-muted open note chords.
. . . . . .
And I'm not even going to try the solos...
I couldn't come remotely close if my life depended on it...


Ваше мнение



Капча