Author/Artist: Hatebreed
Title: Filth
Album: Under the Knife
Transcribed by: Steve Whalen / Greg Thibodeau
Email: [email protected]
Listen to cd for rhythm and timing
Tuning: C G C F A D (drop D, whole step down)
------------------------------------------------------------------------------
------------------------------------------------------------------------------
------------------------------------------------------------------------------
------------------------------------------------------------------------------
-3-2-1-5-4-3-0----------------------------------------------------------------
-3-2-1-5-4-3-0----------------------------------------------------------------
------------------------------------------------------------------------------
------------------------------------------------------------------------------
------------------------------------------------------------------------------
------------------------------------------------------------------------------
-----------------1-3-2-5------------------------------------------------------
-0-0-0-0-0-0-0-0-1-3-2-5------------------------------------------------------
(x8)
------------------------------------------------------------------------------
------------------------------------------------------------------------------
------------------------------------------------------------------------------
------------------------------------------------------------------------------
-1-0-3-0----0-0-3-0--1-1-0-3-0--5-5-5--1-1-1--------0-------------------------
-1-0-3-0----0-0-3-0--1-1-0-3-0--5-5-5--1-1-1--------0-------------------------
(x4) ^ quick open note
------------------------------------------------------------------------------
------------------------------------------------------------------------------
------------------------------------------------------------------------------
------------------------------------------------------------------------------
-3-2-1-5-4-3-0----------------------------------------------------------------
-3-2-1-5-4-3-0----------------------------------------------------------------
------------------------------------------------------------------------------
------------------------------------------------------------------------------
------------------------------------------------------------------------------
------------------------------------------------------------------------------
-----------------1-3-2-5------------------------------------------------------
-0-0-0-0-0-0-0-0-1-3-2-5------------------------------------------------------
(x8)
------------------------------------------------------------------------------
------------------------------------------------------------------------------
------------------------------------------------------------------------------
------------------------------------------------------------------------------
-1-0-3-0----0-0-3-0--1-1-0-3-0--5-5-5--1-1-1--------0-------------------------
-1-0-3-0----0-0-3-0--1-1-0-3-0--5-5-5--1-1-1--------0-------------------------
(x4) ^ quick open note
------------------------------------------------------------------------------
------------------------------------------------------------------------------
------------------------------------------------------------------------------
------------------------------------------------------------------------------
-3-2-1-5-4-3-0----------------------------------------------------------------
-3-2-1-5-4-3-0----------------------------------------------------------------




Ваше мнение



Капча