Hatebreed - Facing what consumes you

D|-------------------------------------------------------------
A|-------------------------------------------------------------
F|-------------------------------------------------------------
C|-------------------------------------------3---------------4-
G|-----------3h5-----------3h6-----------3h5-------------3h5--- Main Riff
C|-000000000-----000000000-----000000000-------000000000-------

D|------------------------------------------------------
A|------------------------------------------------------
F|------------------------------------------------------
C|-----------5/7-----------5/8------------3/5--5/6--65-
G|-----------3/5-----------3/6------------3/5--5/6--65- Chorus Riff
C|-000000000-----000000000-----000000000--3/5--5/6--65-

D|---------------------------------------
A|---------------------------------------
F|---------------------------------------
C|---------------------------------------
G|--------------------------------------- Breakdown Pt1
C|-0--3--5--6--5--3----0--3--5--4--3--1--

D|---------------------------
A|---------------------------
F|---------------------------
C|-0-3-5-6-5-3--0-3-5-4-3-1--
G|-0-3-5-6-5-3--0-3-5-4-3-1-- Breakdown Pt2
C|-0-3-5-6-5-3--0-3-5-4-3-1--

Repeat Main Riff, then Chorus riff adding:
C|-0~
G|-0~
C|-0~ the last time.

D|--------------------------------------------
A|--------------------------------------------
F|--------------------------------------------
C|-----------85-----------75-----------75--
G|-----------63-----------53-----------53-- Outro Riff
C|-000000000-----000000000-----000000000------




Ваше мнение



Капча