Hatebreed - Empty Promises
Tabbed By: wayne
EMail: [email protected]
intro
----------------------
----------------------
----------------------
-0-0-0-0-3--0-0-0-0-1-
-------------------
-------------------
-------------------
-0-0-0-1-3---------
-------------------
-------------------
-------------------
-3-3--1-0----------
-------------------
-------------------
-------------------
-0-0-1-3-4---------
-------------------
-------------------
-------------------
-4--1--------------
-------------------
-------------------
-------------------
-0---0-------------
-------------------
-------------------
-------------------
-0--3--6--0--3-6---
outro
-------------------
-------------------
-------------------
-0-3-6-5-3-5-------




Ваше мнение



Капча