Hatebreed
Doomsayer
Rise of Brutality

Notation:
. - palm mute ~ - vibrato
- slide down b - bend
/ - slide up f - full
h - hammer on h - half
p - pull off r - release
- artificial harmonic () - let ring
Tuning Drop B (BFBEGC)
RIFF A “Your doom awaits you . . .”
|-----------------------------------------------------------------|
|-----------------------------------------------------------------|
|-----------------------------------------------------------------|
|-----------------------------------------------------------------|
|--------------9-0-9-10------------------8-0-8-7------------------|
|-0-0-0-0-0-0---------------0-0-0-0-0-0---------------------------|
. . . . . . . . . . . .
RIFF B “Defeated . . .”
|-----------------------------------------------------------------|
|-----------------------------------------------------------------|
|-----------------------------------------------------------------|
|-------------0----------------3----9-8-6-------------------------|
|-------------0----------------3----9-8-6-------------------------|
|-0-0-0-0-0-0-0----0-0-0-0-0-0-3--0-9-8-6-------------------------|
. . . . . . . . . . . . .
RIFF C
|-----------------------------------------------------------------|
|-----------------------------------------------------------------|
|-----------------------------------------------------------------|
|-------------0---------------------------------------------------|
|-------------0---------------------------------------------------|
|-0-0-0-0-0-0-0----0-0-0-0-0-0-0-0-0-0----------------------------|
. . . . . . . . . . . . . . . .
RIFF D “You will respect . . .”
|-----------------------------------------------------------------|
|-----------------------------------------------------------------|
|-----------------------------------------------------------------|
|------------------3---------------6---------------5-9------------|
|------------------3---------------6---------------5-9------------|
|------3-3-3-3-3-3-3—--6-6-6-6-6-6-6---5-5-5-5-5-5-5-9------------|
. . . . . . . . . . . . . . . . . .
RIFF E
|-----------------------------------------------------------------|
|-----------------------------------------------------------------|
|-----------------------------------------------------------------|
|-0-0-0--3-0-3--0-0-0-0-0--3-0-3-3-------------(0)----------------|
|-0-0-0--3-0-3--0-0-0-0-0--3-0-3-3-------------(0)----------------|
|-0-0-0--3-0-3--0-0-0-0-0--3-0-3-3-------------(0)----------------|
. . . . . . . . . .
RIFF F
|-----------------------------------------------------------------|
|-----------------------------------------------------------------|
|-----------------------------------------------------------------|
|-0-0--0-0-------------X3---0-0-1-4-3--------0--------------------|
|-0-0--0-0------------------0-0-1-4-3--------0--------------------|
|-0-0--0-0—0-0-0-0-0-0------0-0-1-4-3--------0--------------------|
. . . . . . . . . . . . . . .




Ваше мнение



Капча