hatebreed
condemned until rebirth
freddy vs jason soundtrack
tabbed by robert walden
drop B tuning (B F# B E G# C#)
distortion for all

Intro/prechorus(hold the chords)
-------------
-------------
-------------
-4-8-7--2-5-4
-4-8-7--2-5-4
-4-8-7--2-5-4

Verse(hold chords)
-------------
-------------
-------------
-4-8-7---4--1
-4-8-7---4--1
-4-8-7---4--1

Chorus *=palm mute
--------------------
--------------------
--------------------
--------------------
-1-1-1-1--1--1-1-0-2
-1-1-1-1--1--1-1-0-2
* * * * * *
on the 4th time do this instead of 0-2
----
----
----
-4--
-2-2
---2

solo thing towards the end (wah pedal)
---------------------------------
---------------------------------
----------------------------4-3--
-2h4-2h4-2h4p2--2h4-2h4-2h4-----5
---------------------------------
---------------------------------

thats it, just piece it together, im me at kornfellow91 with comments or whatever, thanks




Ваше мнение



Капча