Hatebreed
Call For Blood
Perseverance
Tuning: Down one step (DGCFAD)
LEAD IN
|---------------|
|---------------|
|---------------|
|-4---3---4---6-|
|-4---3---4---6-|
|-4---3---4---6-|
RIFF A1
|-----------------------------------------------------------------|
|-----------------------------------------------------------------|
|-----------------------------------------------------------------|
|-----------------7-------6---3-------------------7---6---7---10--|
|-----------------5-------4---1-------------------5---4---5---8---|
|-0-0-0-0-0-0-0-0-----------------0-0-0-0-0-0-0-0-----------------|
. . . . . . . . . . . . . . . .
RIFF A2
|-----------------------------------------------------------------|
|-----------------------------------------------------------------|
|-----------------------------------------------------------------|
|-----------------7-------6---3-------------------4---3---4---6---|
|-----------------5-------4---1-------------------4---3---4---6---|
|-0-0-0-0-0-0-0-0-----------------0-0-0-0-0-0-0-0-4---3---4---6---|
. . . . . . . . . . . . . . . .
RIFF B1
|-------------------------------|---------------------------------|
|-------------------------------|---------------------------------|
|-------------------------------|---------------------------------|
|-0---0---0---0---7-------6---3-|-0---0---0---0---7---6---7---10--|
|-0---0---0---0---7-------6---3-|-0---0---0---0---5---4---5---8---|
|-0---0---0---0---7-------6---3-|-0---0---0---0-------------------|
. . . . . . . .
RIFF B2 (Note: Don't palm mute the 434 on last time.)
|-------------------------------|---------------------------------|
|-------------------------------|---------------------------------|
|-------------------------------|---------------------------------|
|-0---0---0---0---7-------6---3-|-0---0---0---0---4---3---4---6---|
|-0---0---0---0---7-------6---3-|-0---0---0---0---4---3---4---6---|
|-0---0---0---0---7-------6---3-|-0---0---0---0---4---3---4---6---|
. . . . . . . . . . .
RIFF C1
|-------------------------------|---------------------------------|
|-------------------------------|---------------------------------|
|-------------------------------|---------------------------------|
|-0---0---0-------3-------1---0-|-0---0---0-------3-------5---1---|
|-0---0---0-------3-------1---0-|-0---0---0-------3-------5---1---|
|-0---0---0-------3-------1---0-|-0---0---0-------3-------5---1---|
. . (.) . . (.)
RIFF C2 (Note: Don't play last 4 zero's on last time.)
|-------------------------------|---------------------------------|
|-------------------------------|---------------------------------|
|-------------------------------|---------------------------------|
|-0---0---0-------3-------1---0-|---------------------------------|
|-0---0---0-------3-------1---0-|---------------------------------|
|-0---0---0-------3-------1---0-|-0-0-0-0-0-0-0-0-0-0-0-0-0-0-0-0-|
. . (.) . . . . . . . . . . . . . . . .
FILL 1
|-------------------------------|
|-------------------------------|
|-------------------------------|
|-0-------let-ring-except-------|
|-0--------on-last-time---------|
|-0-----------------------------|
RIFF D
|-------------------------------|
|-------------------------------|
|-------------------------------|
|-4---3---4---6---0------(0)----|
|-4---3---4---6---0------(0)----|
|-4---3---4---6---0------(0)----|
RIFF E
|-----------------------------------------------------------------|
|-----------------------------------------------------------------|
|-----------------------------------------------------------------|
|-3---1---0------(0)------3---1---0------(0)-----(0)-----(0)------|
|-3---1---0------(0)------3---1---0------(0)-----(0)-----(0)------|
|-3---1---0------(0)------3---1---0------(0)-----(0)-----(0)------|
. . . .
|-----------------------------------------------------------------|
|-----------------------------------------------------------------|
|-----------------------------------------------------------------|
|-3---1---0------(0)------3---1-------------------3-------1-------|
|-3---1---0------(0)------3---1---3-------4-------3-------1-------|
|-3---1---0------(0)------3---1---5-------6-------3-------1-------|
. . . .

SONG STRUCTURE:
LEAD IN x 1
RIFF A1 x 1 x 5
RIFF A2 x 1 /

RIFF B1 x 1 x 4 > x 2
RIFF B2 x 1 / /
/
RIFF C1 x 1 x 3
RIFF C2 x 1 /
FILL 1 x 1
RIFF D x 4
FILL 1 x 1
RIFF E x 6
FILL 1 x 1
END




Ваше мнение



Капча