BURN THE LIES - HATEBREED
By:[email protected]
Part 1:
e|---------------------------------------------------------------------------|
B|---------------------------------------------------------------------------|
G|---------------------------------------------------------------------------|
D|--3p0--0-1/4--4-43--3-1/3--3----------------------------------------------|
A|--3p0--0-1/4--4-43--3-1/3--3----------------------------------------------|
D|--3p0--0-1/4--4-43--3-1/3--3----------------------------------------------|
Part 2:
e|---------------------------------------------------------------------------|
B|---------------------------------------------------------------------------|
G|---------------------------------------------------------------------------|
D|--0-1--0--6--5--3----0---(0)-----------------------------------------------|
A|--0-1--0--6--5--3-x3-0---(0)-----------------------------------------------|
D|--0-1--0--6--5--3----0---(0)-----------------------------------------------|
pm pm ^^hit and stop on note except for last time
Part 3:
Gtar 1:
e|---------------------------------------------------------------------------|
B|---------------------------------------------------------------------------|
G|---------------------------------------------------------------------------|
D|--0-0-0---0-0-0---0-0-0---3-2-1---0-0-0---0-0-0---0-0-0---3-5-6------------|
A|--0-0-0---0-0-0---0-0-0---3-2-1---0-0-0---0-0-0---0-0-0---3-5-6------------|
D|--0-0-0---0-0-0---0-0-0---3-2-1---0-0-0---0-0-0---0-0-0---3-5-6------------|
|--pm----------------| |--pm----------------|
Gtar 2:
e|---------------------------------------------------------------------------|
B|---------------------------------------------------------------------------|
G|---------------------------------------------------------------------------|
D|--0-0-0-----------0-0-0---3-2-1---0-0-0-----------0-0-0---3-5-6------------|
A|--0-0-0-----------0-0-0---3-2-1---0-0-0-----------0-0-0---3-5-6------------|
D|--0-0-0-----------0-0-0---3-2-1---0-0-0-----------0-0-0---3-5-6------------|
|-pm-| |-pm-| |-pm-| |-pm-|
Both:
e|---------------------------------------------------------------------------|
B|---------------------------------------------------------------------------|
G|---------------------------------------------------------------------------|
D|--0-0-0---0-0-0---0-0-0---0-0-0---0-0-0---0-0-0---0-0-0---3-2-1------------|
A|--0-0-0---0-0-0---0-0-0---0-0-0---0-0-0---0-0-0---0-0-0---3-2-1------------|
D|--0-0-0---0-0-0---0-0-0---0-0-0---0-0-0---0-0-0---0-0-0---3-2-1------------|
|--pm------------------------------------------------|
e|---------------------------------------------------------------------------|
B|---------------------------------------------------------------------------|
G|---------------------------------------------------------------------------|
D|--0-0-0---0-0-0---0-0-0---0-0-0---0-0-0---0-0-0---0-0-0---3-5-6------------|
A|--0-0-0---0-0-0---0-0-0---0-0-0---0-0-0---0-0-0---0-0-0---3-5-6------------|
D|--0-0-0---0-0-0---0-0-0---0-0-0---0-0-0---0-0-0---0-0-0---3-5-6------------|
|--pm------------------------------------------------|
Then:
e|---------------------------------------------------------------------------|
B|---------------------------------------------------------------------------|
G|---------------------------------------------------------------------------|
D|--00000---0-0-0---00000---0-0-0---00000---0-0-0---00000---3-2-1------------|
A|--00000---0-0-0---00000---0-0-0---00000---0-0-0---00000---3-2-1------------|
D|--00000---0-0-0---00000---0-0-0---00000---0-0-0---00000---3-2-1------------|
|--pm------------------------------------------------|
e|---------------------------------------------------------------------------|
B|---------------------------------------------------------------------------|
G|---------------------------------------------------------------------------|
D|--00000---0-0-0---00000---0-0-0---00000---0-0-0---00000---3-5-6------------|
A|--00000---0-0-0---00000---0-0-0---00000---0-0-0---00000---3-5-6------------|
D|--00000---0-0-0---00000---0-0-0---00000---0-0-0---00000---3-5-6------------|
|--pm------------------------------------------------|
Ending:
e|---------------------------------------------------------------------------|
B|---------------------------------------------------------------------------|
G|---------------------------------------------------------------------------|
D|--00000--------------------------------------------------------------------|
A|--00000--------------------------------------------------------------------|
D|--00000--------------------------------------------------------------------|
|-pm-|
Guitars Tuned Down 1 Full Step To Drop C On Record




Ваше мнение



Капча