THIS IS SUCH A COOL SONG HATEBREED RULE!
Both Guitars are in dop C:
C G C F A D
RIFF 1
|---------------------------|
|---------------------------|
|---------------------------|
|-0--7-6--3--3-6-1----------|
|-0--7-6--3--3-6-1----------|
|-0--7-6--3--3-6-1----------|
RIFF 2
|---------------------------|
|---------------------------|
|---------------------------|
|-4-3-0-3-0-3-0-1-3-0-3-----|
|-4-3-0-3-0-3-0-1-3-0-3-----|
|-4-3-0-3-0-3-0-1-3-0-3-----|
TO GET THE HIGH FEED BACK USE NATURAL HARMONICS ON THE F STRING
ORDER:
RIFF 1 X 4
RIFF 2 X 4
RIFF 1 X 4
RIFF 2 X 4




Ваше мнение



Капча