Found these on another site so I figured I would post em on here.. ENJOY!
Hatebreed - Beholder Of Justice
Submitted By: Sqweeky
EMail: [email protected]
Tuning - Drop C
Verse Intro
|----------------------------------------------------|
|----------------------------------------------------|
|----------------------------------------------------|
|----------------------------------------------------|
|-------1------0-----------------1------0-000-000-000|
|00000001-000000-00000000000000001-000000-000-000-000|
....... ..... ................ ..... ... ... ...
Verse
|-----------------------------------------------------|
|-----------------------------------------------------|
|-----------------------------------------------------|Repeat 4 times
|-----------------------------------------------------|
|00000001-000000-000000000000000001-000000-000-000-000|
|00000001-000000-000000000000000001-000000-000-000-000|
....... ..... ................. ..... ... ... ...
Chorus
|-----------------|
|-----------------|
|-----------------|
|5-5-4------------|Repeat 4 times
|3-3-2-4-3-1-0----|
|------4-3-1-0----|Let it ring for a couple.....


|-----------------------------------------------------|
|-----------------------------------------------------|
|-----------------------------------------------------|Repeat 4 times
|-----------------------------------------------------|
|00000001-000000-000000000000000001-000000-000-000-000|
|00000001-000000-000000000000000001-000000-000-000-000|
....... ..... ................. ..... ... ... ...
Chorus
|-----------------|
|-----------------|
|-----------------|
|5-5-4------------|Repeat 4 times
|3-3-2-4-3-1-0----|
|------4-3-1-0----|let it ring a couple

Chorus2
|----------------------------|
|----------------------------|
|----------------------------|
|5-5-----4-------------------|Repeat 3 times
|3-3-2-4-3-1-0000000000000000|
|------4-3-1-0000000000000000|
................
BreakDown
|---------------------------------------------------------------------------|
|---------------------------------------------------------------------------|
|---------------------------------------------------------------------------|3 x's
|--------------------------------------------------------------------2-5-4-2|
|0000---11--00--11--00--1100000000-0-00-00-0000---11--00--11--00--1100030200|
|0000---11--00--11--00--1100000000-0-00-00-0000---11--00--11--00--110-0-0-0-|
.... .. .. .. .. .......... . .. .. .... .. .. .. .. ... . . .
Chorus
|-----------------|
|-----------------|
|-----------------|
|5-5-4------------|Repeat 4 times
|3-3-2-4-3-1-0----|
|------4-3-1-0----|let it ring a couple




Ваше мнение



Капча