Artist: Harvey Danger
Album: Where have all the merrymakers gone?
Song: Problems and Bigger ones

Intro: E---------------------------------------------3--
B-----3-----------3------------3--------------0--
G--2--2--------2--2------------0--------------0--
D--0--0--------2--2-------0----0---------0-------
A--0-----------0----------2--------------2-------
E-------------------------3--------------3-------

1st Verse: E--0-----------------0--0-----0--
B--3-----------------3--3-----3--
G--2-----------------2--2--2--2--
D--0-----------------------0--0--
A--------------------------------
E--------------------------------
Verse:
E-------------------------------------------
B-------------------------------------------
G--7--7-7-7---------------------------------
D--7--7-7-7---7--7-7-7---4--4-4-4---5--5-5-5
A--5--5-5-5---7--7-7-7---4--4-4-4---5--5-5-5
E-------------5--5-5-5---2--2-2-2---3--3-3-3

Chorus:
E------------------------------------------
B------------------------------------------
G---7--7-7-7-------------------------------
D---7--7-7-7-7--7-7-7--5--5-5-5------------
A---5--5-5-5-7--7-7-7--5--5-5-5--4-5-7-5---
E------------5--5-5-5--3--3-3-3------------

Bridge:
E-------------------------------------------
B-------------------------------------------
G--7--7-7-7---------------------------------
D--7--7-7-7---7--7-7-7---4--4-4-4---5--5-5-5
A--5--5-5-5---7--7-7-7---4--4-4-4---5--5-5-5
E-------------5--5-5-5---2--2-2-2---3--3-3-3

E-----------------------------------------------------------------------
B-------3--------3-------3---------3--------3---3------ 3-------3-----3-
G----2----2----------------------2----2---------------0---0-------------
D-0----------0------0----------2--------2-----2---- 0------0-------0----
A-----------------------------------------------------------------------
E-----------------------------------------------------------------------

E-----
B-----
G--7--
D--7-- ?x
A--5--
E-----




Ваше мнение



Капча