e: Sat, 2 May 1998 16:45:05 EDT
From: Shooee14
Subject: h/harvey_danger/flagpole_sitta.tab
Title: "Flagpole Sitta"
Band: Harvey Danger
Album: Where Have All the Merrymakers Gone?
Transcribed by: [email protected]
I couldn't hear much guitar during the verses, so I just transcribed the
bass part and
just put it into power chords.
Normal Tuning
Slight Distortion
Intro: (Make sure to mute the 4th string.)
D E F# A G F#
E D
---------------------------------------------------------------------------
---------------------------------------------------------------------------
-7--------9---------11------- 14--------12-------11-------9---------7--
---------------------------------------------------------------------------
-5--------7----------9--------12--------10--------9------- 7---------5--
---------------------------------------------------------------------------
C E C E D
-------------------------------------------------------------------------
-------------------------------------------------------------------------
-5-------------9----------5-----------9----------7---------------------
-------------------------------------------------------------------------
-3-------------7----------3-----------7----------5---------------------
-------------------------------------------------------------------------
Verse 1:
D5 B5
--------------------------------------------------------------------------
--------------------------------------------------------------------------
-7---7---7---7----7---7---7---7----7---7---7---7----7---7---7---7----
-7---7---7---7----7---7---7---7----7---7---7---7----7---7---7---7----
-5---5---5---5----5---5---5---5----5---5---5---5----5---5---5---5----
--------------------------------------------------------------------------
I had visions, I was in them, I was looking, Into the mirror
B5
--------------------------------------------------------------------------
--------------------------------------------------------------------------
-4---4---4---4----4---4---4---4----4---4---4---4----4---4---4---4----
-4---4---4---4----4---4---4---4----4---4---4---4----4---4---4---4----
-2---2---2---2----2---2---2---2----2---2---2---2----2---2---2---2----
--------------------------------------------------------------------------
To see a
little bit clearer
C5
--------------------------------------------------------------------------
--------------------------------------------------------------------------
-5---5---5---5----5---5---5---5----5---5---5---5----5---5---5---5----
-5---5---5---5----5---5---5---5----5---5---5---5----5---5---5---5----
-3---3---3---3----3---3---3---3----3---3---3---3----3---3---3---3----
--------------------------------------------------------------------------
The rottiness and evil in me
A5
--------------------------------------------------------------------------
--------------------------------------------------------------------------
-2---2---2---2----2---2---2---2----2---2---2---2----5-------4--------
-2---2---2---2----2---2---2---2----2---2---2---2----5-------4--------
-0---0---0---0----0---0---0---0----0---0---0---0----3-------2--------
--------------------------------------------------------------------------
Repeat Verse
Verse 2:
Fingertips have memories
I can't forget the curves of your body
And when I feel a bit naughty
I run em up the flagpole and see
Who salutes, but no one ever does
Chorus:
D5
--------------------------------------------------------------------------
--------------------------------------------------------------------------
-7-------7---------7-------7--------7--------7--------7-------7--------
-7-------7---------7-------7--------7--------7--------7-------7--------
-5-------5---------5-------5--------5--------5--------5-------5--------
-------------------------------------------------------------------------
Iiiiiiiiiiiiiiiiiiiiiiiiiiiiiiiiiiiiiiiiiiiiiiiiiiii I'm not sick,
but I'm not
E5
--------------------------------------------------------------------------
--------------------------------------------------------------------------
-9-------9---------9-------9--------9--------9--------9-------9--------
-9-------9---------9-------9--------9--------9--------9-------9--------
-7-------7---------7-------7--------7--------7--------7-------7--------
-------------------------------------------------------------------------
Welllllllllllllllllllllllllllllllllllllllllllllllll, and
I'm so
C5
-------------------------------------------------------------------------
-------------------------------------------------------------------------
-5-------5---------5-------5--------5--------5--------5-------5-------
-5-------5---------5-------5--------5--------5--------5-------5-------
-3-------3---------3-------3--------3--------3--------3-------3-------
-------------------------------------------------------------------------
Hottttttttttttttttttttttttttttttttt, Cuz
I'm in
--------------------------------------------------------------------------
--------------------------------------------------------------------------
-7-------7---------7-------7--------7--------7--------7-------7--------
-7-------7---------7-------7--------7--------7--------7-------7--------
-5-------5---------5-------5--------5--------5--------5-------5--------
-------------------------------------------------------------------------
Hellllllllllllllllllllllllllllllllllllllllllllllllllllllllllllllllllllllllllll
lllllllllllllllllll

Verse 3:
Been around the world
And found that only stupid people are breeding
The cretons cloning and feeding
And I don't even own a TV
Verse 4:
Put me in the hospital for nerves
And they had to commit me
You told them all I was crazy
They cut off my legs
Now I'm an amputee, God damn you
Chorus
Chorus
(in this chorus, the last two lines are: And it's a sin, to live so well)
Bridge:
(guitar part is same as the chorus, I think)
I wanna publish 'zines
And rage against machines
I wanna pierce my tongue
It doesn't hurt it feels fine
I like to turn off time
Kill my mind
Kill my mind
Mind..............................
Verse 5: (guitar is same as chorus)
Paranoia, paranoia
Everybody's comin to get me
Just say you never met me
I'm runnin under the ground with the moles
Diggin holes
Verse 6: (guitar same as chorus)
Hear the voices in my head
I swear to God
It sounds like they're snoring
But if you're bored then you're boring
The agony and the irony
They're killing me
Whoa
Chorus
Chorus (last two lines different)
1...2...3...4....
Ending
C5 D5
--------------------------------------------------------------------------
--------------------------------------------------------------------------
-5-------7---------7-------7--------7--------7--------7-------7--------
-5-------7---------7-------7--------7--------7--------7-------7--------
-3-------5---------5-------5--------5--------5--------5-------5--------
-------------------------------------------------------------------------
Repeat 3x
Last time....
C5 D5 C5 D5
A5
--------------------------------------------------------------------------
--------------------------------------------------------------------------
-5-------7---------7-------7--------7--------5--------7-------2--------
-5-------7---------7-------7--------7--------5--------7-------2--------
-3-------5---------5-------5--------5--------3--------5-------0--------
-------------------------------------------------------------------------
Again, I'm positively sure that these aren't exact. But if you play along
with the song, it
sounds pretty good.




Ваше мнение



Капча