Song: Carlotta Valdez
Artist: Harvey Danger
Album: Where have all the Merry Makers Gone
Bass Tab Tabed by Dallas Rose

E-mail all suggestions to Dallas Rose at [email protected]

Intro Bass Solo:
G-------------------------------------------|---------------------------------------|
D-----------------8--8--8--8--------6-------|----------------8--8--8--8--9--9-8--| (repeat)
A---9--9--7--7---------------7--7-----------|---9--9--7--7-------------------------|
E-------------------------------------------|----------------------------------------

Verse: (Every other Time)
G--------------------------------------------------|
D--------------------------------7--7--(9)--(9)----|
A--0--0--0--0--2--2--2--2--------------------------|
E--------------------------------------------------|

Chorus:
G--------------------------------|-----------------------------|
D--------------7--7--9--9--9-----|-----------------------------|
A--9--7--7-----------------------|-7--7--9--9--0--0--2--2------|
E--------------------------------|-----------------------------|

That is the basics of the song. This is a very Bass dominated sond so enjoy it and add in your own unique stuff.
E-mail me at [email protected]




Ваше мнение



Капча