Artist: Harvey Danger
Song: Authenticity
Album: King James Version

Chords Used
A B D highE
E----------------
B----------------
G-----4--7----9--
D--7--4--7----9--
A--7--2--5----7--
E--5-------------

Intro (pick scrape in): B D A ( Hoo Hoo ) x4

Verse:
B D A
I have a stinger. I am a honey bee
B D A
I am a razor. Please cut your rists with me
B D A
Your super common. You flaunt you pedegre.
B D A
Your clear as water. wo ho ho (I..)

Chorus:
B D E B D E
I'm already spinning in my grave (ooh woo ooh ooh hoo ooh woo ooh ooh hoo hoo)
B D E B D E
I'm already spinning in my grave (ooh woo ooh ooh hoo ooh woo ooh ooh hoo hoo)

Verse 2:
B D A
I am the subject of your documentary
B D A
You have a question? I am the third degree
B D A
I am authentic. I'm authenticity
B D A
I'm no such thinga Oh oh ho ho (C'mon!)

Chorus:
B D E B D E
I'm already spinning in my grave (ooh woo ooh ooh hoo ooh woo ooh ooh hoo hoo)
B D E B D E
I'm already spinning in my grave (ooh woo ooh ooh hoo ooh woo ooh ooh hoo hoo)

Bridge:

Part 1 ( Keyboard arranged for guitar ):
E----------------------------------
B--4--4----3--3----4--4----3---4---
G---4--4-4--4--4-4--4--4-4--4-4-4-4
D-------4-------4-------4----4---4- x2
A-2--2----2--2----2--2----2--------
E----------------------------------

Part 2 ( Guitar overlapped with Badadadadadadada so it's hard to hear.
this is probably close anyway):
E-----------------------------------
B-----------------------------------
G-----------------------------------
D-------44-b4-2-44-b4-2-44-b4-2-2-2- x2
A-0-2-4-----------------------------
E-----------------------------------

( Ah )

E----
B----
G---- x3
D-b4-
A----
E----

( Guitar fades )
It's a damn shame.

Chorus:
B D E B D E
I'm already spinning in my grave (ooh woo ooh ooh hoo ooh woo ooh ooh hoo hoo)
B D E B D E
I'm already spittin' on your grave (ooh woo ooh ooh hoo ooh woo ooh ooh hoo hoo)
B D E
I'M ALREADY SPINNING IN MY GRAVE!
B D E
I'M ALREADY SPINNING IN MY GRAVE!

end on B




Ваше мнение



Капча