NOTE:TUNE GUITAR A HALF STEP DOWN TO Eb

INTRO: X 2
E-------------------------------------------------------------------------|
B-------------------------------------------------------------------------|
G|---7-7-------7-----10-----7-------7-----5---------7-7-------7-------10--12-10-9-----|
D|---7-7-0-0-0-7-0-0-10-0-0-7-0-0-0-7-0-0-5-0-0-0-0-0-7-0-0-0-7-0-0-0-10--12-10-9-10--|
A---------------------------------------------------------------------10--|

E-------------------------------------------------------------------------|
| P.M | |P.M| |P.M| | P.M.| |P.M| | P.M...| | P.M.| | P.M.|

E-------------------------------------------------------------------------|
B-------------------------------------------------------------------------|
G|---7-7-------7-----10-----7-------7-----5---------7-7-------7-------10--12-10-9-----|
D|---7-7-0-0-0-7-0-0-10-0-0-7-0-0-0-7-0-0-5-0-0-0-0-0-7-0-0-0-7-0-0-0-10--12-10-9-10-8|
A---------------------------------------------------------------------10-8|
E-------------------------------------------------------------------------|
| P.M | |P.M| |P.M| | P.M.| |P.M| | P.M...| | P.M.| | P.M.|

E---------------------------|
B---------------------------|
G---------------------------|
D---------------------------|
A----5-5-8-8-7-7-5-5--------|
E|---5-5-7-7-8-8-----------------8-8----|
| P.M........................... |

VERSE:
E-------------------------------------------------------------------------|
B-------------------------------------------------------------------------|
G-------------------------------------------------------------------------|
D|---7---5-7---7-5-3----------------------------------7---5-7---7-5-3-----------------|
A|---7---5-7---7-5-3----------------------------------7---5-7---7-5-3-----------------|
E|---5---3-5---5-3-1--1-1-1-1-3-3-3-3-5-5-5-5-7-7-7-7-5---3-5---5-3-1--1-1-1-1-3-3-3-3|
| P.M...........................| | P.M...........

E-------------------------------------------------------------------------|
B-------------------------------------------------------------------------|
G-------------------------------------------------------------------------|
D--------7-----------------7-------5-7-----------7-5-3-7-7-7-7-10-10-10-10|
A--------7-----------------7-------5-7-----------7-5-3--------------------|
E|---5-5-5-5-7-7-7-7-5-5-5-5-5-5-5-5-5-5-5-5-5-3-5-5-5-5-5-5-5-3-1--------------------|
................| | P.M...........| | P.M.| | P.M.....| | P.M...............

E-------------------------------------------------------------------------|
B-------------------------------------------------------------------------|
G|---7-7-7-7--------------------------------------------------------------------------|
D9-9-9-9-7-----------------7-------5-7-----------7-5-3-7-7-7-7-10-10-10-10|
A--------7-----------------7-------5-7-----------7-5-3--------------------|
E--------5-5-5-5-5-5-5-5-5-5-5-5-5-3-5-5-5-5-5-5-5-3-1--------------------|
................ | P.M...........| | P.M.| | P.M.....| | P.M...............

E---------------|
B---------------|
G|---7-7-7-7----------------|
D---------------|
A10-10-10-10----|
E---------------|
.....................|

BRIDGE:
E-------------------------------------------------------------------------|
B-------------------------------------------------------------------------|
G-------------------------------------------------------------------------|
D------------------------------------------------7-7-7-7-7-7-7-7-9-9-9-9-9|
A|---7-7-7-7-7-7-7-7-7-7-7-7-7-7-7-7-10-10-10-10-10-10-10-10--------------------------|
E-------------------------------------------------------------------------|
| P.M........ALL

E-------------------------------------------------------------------------|
B-------------------------------------------------------------------------|
G----------------------7--4-----------------------------------------------|
D|---9-9-9-12-12-12-12-10-10-10-10-7--4-----------------------------------------------|
A----------------------5--2-3-3-3-3-3-3-3-3-3-3-3-3-3-3-3-3-5-5-5-5-5-5-5-|
E-------------------------------------------------------------------------|
| P.M..........................| | P.M..........................................

E-------------------------------------------------------------------------|
B-------------------------------------------------------------------------|
G----------------7--------------------------------------------------------|
D----------5-4-2-7--------------------------------------------------------|
A|---5-5-5-5-5-5-5-5-5-5-4-2-5-3-3-3-3-3-3-3-3-3-3-3-3-3-3-3-3-5-5-5-5-5-5-5-5-5-5-5-5|
E----------3-2-0----------------------------------------------------------|
| P.M.............| | P.M......ALL

E-----------------------------------------|
B-----------------------------------------|
G-----------------------------------------|
D----------------5-7-----------------9----|
A|---5-5-5-5-----------------5-7-----------------9----|
E5-5-5-5-5-5-5-5-3-5-7-7-7-7-7-7-7-7-7----|
........................| | P.M.......... |

AFTER BRIDGE:
PLAY INTRO AGAIN

VERSE:
E-------------------------------------------------------------------------|
B-------------------------------------------------------------------------|
G----------------------------------------------------------7-7-7-7--------|
D|---7-----------------7-------5-7-----------7-5-3-7-7-7-7-10-10-10-10---------9-9-9-9|
A|---7-----------------7-------5-7-----------7-5-3------------------------------------|
E|---5-5-5-5-5-5-5-5-5-5-5-5-5-3-5-5-5-5-5-5-5-3-1------------------------------------|
| P.M...........| | P.M.| | P.M.....| | P.M...............................|

E-------------------------------------------------------------------------|
B-------------------------------------------------------------------------|
G----------------------------------------------------------7-7-7-7--------|
D|---7-----------------7-------5-7-----------5-5-3-7-7-7-7-10-10-10-10----------------|
A|---7-----------------7-------5-7-----------7-5-3-----------------------------10-10--|
E|---5-5-5-5-5-5-5-5-5-5-5-5-5-3-5-5-5-5-5-5-5-3-1------------------------------------|
| P.M...........| | P.M.| | P.M.....| | P.M..............................

E-|
B-|
G-|
D-|
A|---10-10----|
E-|
........|

BRIDGE:
SAME AS ABOVE

CHORUS: ( 2 GUITARS IS WRITTEN )
E-------------------------------------------------------------------------|
B-------------------------------------------------------------------------|
G-------------------------------------------------------------------------|
D----------------------------7-7-7-7---------------------------------10-10|
A|---10-10-10-10-10-10-10-10-10-10-10-10---------9-9-9-9-9-9-9-9-9-9-9-9-9-9-9-9------|
E|-- G ----------------------------------------- F# ---------------------------- C ---|
| P.M................ALL

E-------------------------------------------------------------------------|
B--------------------------------------------------------------- PLAY ----|
G----------------------7-7-7-7---------------------------------- THIS ----|
D|---10-10-10-10-10-10-10-10-10-10---------9-9-9-9-9-9-9-9-7-7-7-7-7-7-7-7-- PART ----|
A--------------------------------------------------------------- TWICE ---|
E----------------------------- B ------------- A -------------------------|
| P.M..........ALL

E-------------------------------------------------------------------------|
B-------------------------------------------------------------------------|
G|---------7---------7-----------------7---------7-----------------7---------7--------|
D|---3--2--7---------7-----------------7---------7-----------------7---------7--------|
A|---3--2--5-5-5-5-5-5-5-5-5-5-5-5-5-5-5-5-5-5-5-5-5-5-5-5-5-5-5-5-5-5-5-5-5-5-5-5-5-5|
E|---1--0-----------------------------------------------------------------------------|
| P.M...| | P.M...........| | P.M...| | P.M...........| | P.M...| | P.M...

E-------------------------|
B-------------------------|
G-------------------------|
D-------------------------|
A|---5---------5-5-7-7-8-7h5p4-5------|
E|-----6-6-8-8-------------------5----|
...................|

BRIDGE:
E----------------------------------------------------------------------|
B----------------------------------------------------------------------|
G|---7-----7---------10-----9-----10-----7------------------------------- PLAY ----|
D|---7-0-0-7-0-0-0-0--7-0-0-7-0-0--7-0-0-7-0-0-0-0-0-0-0---5------------- THIS ----|
A--------------------------------------------5---8-7-5---5-7- TWICE ---|
E------------------------------------------------------8---------------|
|P.M| | P.M...| |P.M| |P.M| |P.M| | P.M.........|

E-----------------------------------------------------------------|
B-----------------------------------------------------------------|
G-----------------------------------------------------------------|
D|---7-----7---------10-----9-----10-----7-----------------7------------------|
A|---7-7-7-7-7-7-7-7--7-7-7-7-7-7--7-7-7-7-7-7-7-7-7-7-7-7---10-9-7----7-9----|
E-------------------------------------------------------10--------|
|P.M| | P.M...| |P.M| |P.M| |P.M| | P.M.........|

E-----------------------------------------------------------------|
B-----------------------------------------------------------------|
G|---7-----7---------10-----9-----10-----7-----------------------------5-5----|
D|---7-0-0-7-0-0-0-0--7-0-0-7-0-0--7-0-0-7-0-0-0-0-0-0-0---5-----------5-5----|
A--------------------------------------------5---8-7-5---5-3-3----|
E------------------------------------------------------8----------|
|P.M| | P.M...| |P.M| |P.M| |P.M| | P.M.........|

SOLO: ( 2 GUITARS IS WRITTEN )
E------------------------------------------------------------------------|
B|---7-0-0-0-0-0-0-8-0-0-0-0-0-0-5-0-0-7-0-0-3-0-0-5-0-0-0-0-7-0-0-0-0-0-0-8-0-0-0-0-|
G------------------------------------------------------------------------|
D------------------------------------------------------------------------|
A------------------------------------------------------------------------|
E|-- B ------------------------------------------------------------------------------|

E------------------------7-0-0-0-0-0-0-8-0-0-0-0-0-0-5-0-0-7-0-0-3-0-0-5-|
B|---0-0-5-0-0-7-0-0-3-0-0-5-0-0-0-0-------------------------------------------------|
G------------------------------------------------------------------------|
D------------------------------------------------------------------------|
A------------------------------------------------------------------------|
E----------------------- E ----------------------------------------------|

E|---0-0-0-0-7-0-0-0-0-0-0-8-0-0-0-0-0-0-5-0-0-7-0-0-3-0-0-5-0-0-----------|
B---------------------------------------------------- PLAY ----|
G---------------------------------------------------- THIS ----|
D---------------------------------------------------- PART ----|
A---------------------------------------------------- TWICE ---|
E--------------------------------------------------------------|

E--------------------------------------------------------7-0-0-0-8-0-0-0-|
B|---7-0-0-0-8-0-0-0-5-0-7-0-3-0-5-0-7-0-0-0-8-0-0-0-5-0-7-0-3-0-5-0-----------------|
G------------------------------------------------------------------------|
D------------------------------------------------------------------------|
A------------------------------------------------------------------------|
E|-- B ------------- G ----- A ----- B ------------- G ----- A------ E --------------|

E|---5-0-7-0-3-0-5-0-7-0-0-0-8-0-0-0-5-0-7-0-3-0-5-0---------|
B------------------------------------------------|
G----------------------------------------5--7----|
D----------------------------------------5--7----|
A----------------------------------------3--5----|
E|-- C ----- D ----- E ------------- C ----- D --------------|

BRIDGE:
SAME AS ABOVE

CHORUS: ( 2 GUITARS IS WRITTEN )
E-------------------------------------------------------------------------|
B-------------------------------------------------------------------------|
G-------------------------------------------------------------------------|
D----------------------------7-7-7-7---------------------------------10-10|
A|---10-10-10-10-10-10-10-10-10-10-10-10---------9-9-9-9-9-9-9-9-9-9-9-9-9-9-9-9------|
E|-- G ----------------------------------------- F# ---------------------------- C ---|
| P.M......ALL

E------------------------------------------------------------------------|
B-------------------------------------------------------------- PLAY ----|
G----------------------7-7-7-7--------------------------------- THIS ----|
D|---10-10-10-10-10-10-10-10-10-10---------9-9-9-9-9-9-9-9-7-7-7-7-7-7-7-7- PART ----|
A-------------------------------------------------------------- X4 ----|
E----------------------------- B ------------- A ------------------------|
| P.M.......ALL

E------------------------------------------------------------------------|
B------------------------------------------------------------------------|
G|-------7---------7-----------------7---------7-----------------7---------7---------|
D|---3-2-7---------7-----------------7---------7-----------------7---------7---------|
A|---3-2-5-5-5-5-5-5-5-5-5-5-5-5-5-5-5-5-5-5-5-5-5-5-5-5-5-5-5-5-5-5-5-5-5-5-5-5-5-5-|
E|---1-0-----------------------------------------------------------------------------|
| P.M...| | P.M...........| | P.M...| | P.M...........| | P.M...| | P.M....

E----------------------------------------------------------|
B----------------------------------------------------------|
G--------------------------7-7-------7-------10-------7----|
D--------------------------7-7-------7-------10-------7----|
A|---5---------5-5-7-7-8-8-7-7-5-5-----5-5-5-5-5-5-5-5-5----5-5-5-5----|
E|-----6-6-8-8---------------------8-8---------------------------------|
...................................| | P.M.| | P.M.| | P.M.|

END OF SONG




Ваше мнение



Капча