HammerFall - Trailblazers
Tabbed by Zati ([email protected])
Tune to Eb
Tempo=250
Please rate this tab!

Gtr 1
--------------------------|---------------------------|---------------------------|
--------------------------|---------------------------|---------------------------|
--------------------------|---------------------------|---------------------------|
--------------------------|--------7-----9--7---------|---------------------------|
--7----7----10--9--7--10--|--x--x-----x--------10--9--|--7--7--7--7--10--9--7--7--|
--------------------------|---------------------------|---------------------------|
Gtr 2
--------------------------|---------------------------|---------------------------|
--------------------------|---------------------------|---------------------------|
--------------------------|---------------------------|---------------------------|
--------------------------|---------------------------|---------------------------|
--2-----------------------|---------------------------|---------------------------|
--0-----------------------|---------------------------|---------------------------|
Gtr 1

------------------14b---|--------------------------|---------------------------|
------------------------|--------------------------|---------------------------|
------------------------|--------------------------|---------------------------|
--7---------------------|--------------------------|--------7-----9--7---------|
-------10----9----------|--7----7----10--9--7--10--|--x--x-----x--------10--9--|
------------------------|--------------------------|---------------------------|
Gtr 2
------------------------|--------------------------|---------------------------|
------------------------|--------------------------|---------------------------|
------------------------|--------------------------|---------------------------|
------------------------|--------------------------|---------------------------|
--2----------2----2-----|--2-----------------------|---------------------------|
--0----------0----0-----|--0-----------------------|---------------------------|
Gtr 1

---------------------------|-----------------------|--------------------------|
---------------------------|-----------------------|--------------------------|
---------------------------|-----------------------|--------------------------|
---------------------------|-----------------------|--------------------------|
--7--10--9--7--5--7--9--7--|--7----10----5----0----|--7----7----10--9--7--10--|
---------------------------|-----------------------|--------------------------|
Gtr 2
---------------------------|-----------------------|--------------------------|
---------------------------|-----------------------|--------------------------|
---------------------------|-----------------------|--------------------------|
--7------------------------|--9--------------------|--------------------------|
--5------------------------|--7--------------------|--2-----------------------|
---------------------------|-----------------------|--0-----------------------|
Gtr 1

---------------------------|---------------------------|------------------14b---|
---------------------------|---------------------------|------------------------|
---------------------------|---------------------------|------------------------|
--------7-----9--7---------|---------------------------|--7---------------------|
--x--x-----x--------10--9--|--7--7--7--7--10--9--7--7--|-------10----9----------|
---------------------------|---------------------------|------------------------|
Gtr 2
---------------------------|---------------------------|------------------------|
---------------------------|---------------------------|------------------------|
---------------------------|---------------------------|------------------------|
---------------------------|---------------------------|------------------------|
---------------------------|-----2---------------------|--2----------2----2-----|
---------------------------|-----0---------------------|--0----------0----0-----|
Gtr 1

--------------------------|---------------------------|---------------------------|
--------------------------|---------------------------|---------------------------|
--------------------------|---------------------------|---------------------------|
--------------------------|--------7-----9--7---------|---------------------------|
--7----7----10--9--7--10--|--x--x-----x--------10--9--|--7--10--9--7--5--7--9--7--|
--------------------------|---------------------------|---------------------------|
Gtr 2
--------------------------|---------------------------|---------------------------|
--------------------------|---------------------------|---------------------------|
--------------------------|---------------------------|---------------------------|
--------------------------|---------------------------|---------------------------|
--2-----------------------|---------------------------|--7--10--9--7--5--7--9--7--|
--0-----------------------|---------------------------|---------------------------|
Gtr 1,2:
--------|
--------|
--------|
--7-----|
--5-----|
--------|
Gtr 1

-------------------|-----------------------|-----------------------|------------------14b---|
-------------------|-----------------------|-----------------------|------------------------|
*------------------|-----------------------|-----------------------|------------------------|
*------------------|----------9--7---------|-----------------------|--7---------------------|
-------------------|----------------10--9--|-----------------------|-------10----9----------|
-------------------|-----------------------|-----------------------|------------------------|
Gtr 2
-------------------|-----------------------|-----------------------|------------------------|
-------------------|-----------------------|-----------------------|------------------------|
-------------------|-----------------------|-----------------------|------------------------|
-------------------|-----------------------|plays the 1st bar again|------------------------|
--2-2-2-2-2-2-2-2--|-2-2-2-2---------------|-----------------------|--7----------2----7-----|
--0-0-0-0-0-0-0-0--|-0-0-0-0-0--0--0---0---|-----------------------|--0----------0----0-----|
Gtr 1

------------------|-----------------------|---------------------------|------------------------||
------------------|-----------------------|---------------------------|------------------------||
------------------|-----------------------|---------------------------|-----------------------*||
------------------|----------9--7---------|---------------------------|-----------------------*||
------------------|----------------10--9--|--7--10--9--7--5--7--9--7--|--7----10----5----0-----||
------------------|-----------------------|---------------------------|------------------------||
Gtr 2
------------------|-----------------------|---------------------------|------------------------||
------------------|-----------------------|---------------------------|------------------------||
------------------|-----------------------|---------------------------|------------------------||
------------------|-----------------------|---------------------------|------------------------||
--2-2-2-2-2-2-2-2-|-2-2-2-2---------------|---------------------------|------------------------||
--0-0-0-0-0-0-0-0-|-0-0-0-0--0--0--0---0--|--0--0---0--0--0--0--0--0--|--0----0-----0----0-----||




Ваше мнение



Капча