TEMPLARS OF STEEL
BY
HAMMERFALL
FROM
RENEGADE
TABBED BY DANIEL KALANDER
Tune down 1/2 step
INTRO x3
e|-----------------------------------------------------------------------------------------|
B|-----------------------------------------------------------------------------------------|
G|--9-9------------------9-9-----------------9-9-----------------------------5-------------|
D|--9-9-------------10-7-9-9-----------------9-9-------------10--9--7--9--7--5-------------|
A|--7-7-------------7--7-7-7-----------------7-7-------------7---7--5--5--5--3-------------|
E|-----------------------------------------------------------------------------------------|
e|-----------------------------------------------------------------------------------------|
B|-----------------------------------------------------------------------------------------|
G|--9-9------------------9-9-----------------9-9-----------------------------5---4---------|
D|--9-9-------------10-7-9-9-----------------9-9-------------10--9--7--9--7--5---4---------|
A|--7-7-------------7--7-7-7-----------------7-7-------------7---7--5--5--5--3---2---------|
E|-----------------------------------------------------------------------------------------|
e|----------------------------------------------------------------------------------------|
B|----------------------------------------------------------------------------------------|
G|--9-9------------------9-9-----------------9-9-----------------------------5------------|
D|--9-9-------------10-7-9-9-----------------9-9-------------10--9--7--9--7--5------------|
A|--7-7-------------7--7-7-7-----------------7-7-------------7---7--5--5--5--3------------|
E|------0-0-0-0-0-0----------0-0-0-0-0-0-0-0-----0-0-0-0-0-0------------------------------|
e|----------------------------------------------------------------------------------------|
B|----------------------------------------------------------------------------------------|
G|--9-9------------------9-9-----------------9-9-----------------------------5--4---------|
D|--9-9-------------10-7-9-9-----------------9-9-------------10--9--7--9--7--5--4---------|
A|--7-7-------------7--7-7-7-----------------7-7-------------7---7--5--5--5--3--2---------|
E|------0-0-0-0-0-0----------0-0-0-0-0-0-0-0-----0-0-0-0-0-0------------------------------|
VERSE
e|----------------------------------------------------------------------------------------|
B|----------------------------------------------------------------------------------------|
G|--9-9------------------9-9-----------------9-9-----------------------------5------------|
D|--9-9-------------10-7-9-9-----------------9-9-------------10--9--7--9--7--5------------|
A|--7-7-------------7--7-7-7-----------------7-7-------------7---7--5--5--5--3------------|
E|------0-0-0-0-0-0----------0-0-0-0-0-0-0-0-----0-0-0-0-0-0------------------------------|

The hands of time have brought you here to make a change to break down the walls
e|----------------------------------------------------------------------------------------|
B|----------------------------------------------------------------------------------------|
G|--9-9------------------9-9-----------------9-9-----------------------------5--4---------|
D|--9-9-------------10-7-9-9-----------------9-9-------------10--9--7--9--7--5--4---------|
A|--7-7-------------7--7-7-7-----------------7-7-------------7---7--5--5--5--3--2---------|
E|------0-0-0-0-0-0----------0-0-0-0-0-0-0-0-----0-0-0-0-0-0------------------------------|
You are the ones and you are the only trying to live by your own goals

BRIDGE
e|----------------------------------------------------------------------------------------|
B|----------------------------------------------------------------------------------------|
G|-----------------------------------5-----------4-4-5-7----------------------------------|
D|--7-------3-------2-----2---7------5---5-------4-4-5-7----------------------------------|
A|--7-------3-------2-----2---7------3---5-------2-2-3-5----------------------------------|
E|--5-------1-------0-0-0-0-0-5----------3------------------------------------------------|

And you all cry for freedom raise your fist to the sky

CHORUS
e|----------------------------------------------------------------------------------------|
B|----------------------------------------------------------------------------------------|
G|--9-9------5-5-----------------7---7-----9-9-------5-5--------------------7-----7-------|
D|--9-9------5-5-------5-5-------7---7-----9-9-------5-5-------5-----5------7-----7-------|
A|--7-7------3-3-------5-5-------5---5-----7-7-------3-3-------5-----5------5-5-5-5-5-5---|
E|---------------------3-3-------------------------------------3-3-3-3-3-3----------------|

Let your voice speak for the revolution all join forces with all the powers that you feel
e|----------------------------------------------------------------------------------------|
B|----------------------------------------------------------------------------------------|
G|--9-9------5-5----------------7---7-------9--------5--------7---------------------------|
D|--9-9------5-5-------5-5------7---7-------9--------5--------7---------------------------|
A|--7-7------3-3-------5-5------5---5-------7--------3--------5---------------------------|
E|---------------------3-3----------------------------------------------------------------|
Let your heart beat for the revolution led by the templars of steel
REPEAT
VERSE
BRIDGE
CHORUS
e|----------------------------------------------------------|
B|----------------------------------------------------------|
G|--9---------5----------7----------------------------------|
D|--9---------5----------7-------------------9-7------------|
A|--7---------3----------5-----------------------10-9-------|
E|----------------------------------------------------------|
You are the templars of steel
SOLO RHYTHM x2
e|----------------------------------------------------------|
B|----------------------------------------------------------|
G|----------------------------------------------------------|
D|--9-----9-----9-----9------5-----5-----7------------------|
A|--9-----9-----9-----9------5-----5-----7------9-7---------|
E|--7-7-7-7-7-7-7-7-7-7--7-7-3-3-3-3-3-3-5-5-5------10-9----|
e|----------------------------------------------------------|
B|----------------------------------------------------------|
G|----------------------------------------------------------|
D|--9-----9-----9-----9-----12-------12----4----------------|
A|--9-----9-----9-----9-----12-------12----4----------------|
E|--7-7-7-7-7-7-7-7-7-7-7-7-10-10-10-10-10-2--3-2-3-5-------|
AFTER THE SOLO
e|----------------------------------------------------------------------------------------|
B|----------------------------------------------------------------------------------------|
G|--7---------10---------7----------10----------7-----------10----------7-----------------|
D|--5----8----8----10----5-----8----8-----10----5-----8-----8-----10----5-----8-----10----|
A|-------6---------8-----------6----------8-----------6-----------8-----------6-----8-----|
E|----------------------------------------------------------------------------------------|
Oh,oh,oh....
REPEAT CHORUS
CHORUS 2
e|----------------------------------------------------------------------------------------|
B|----------------------------------------------------------------------------------------|
G|--12-12-----8-8-------------10---10------12-12-----8-8-----------------10-----10--------|
D|--12-12-----8-8-----8-8-----10---10------12-12-----8-8-----8-----8-----10-----10--------|
A|--10-10-----6-6-----8-8-----8----8-------10-10-----6-6-----8-----8-----8--8-8-8--8-8----|
E|--------------------6-6------------------------------------6-6-6-6-6-6------------------|
Let your heart......
e|----------------------------------------------------------------------------------------|
B|----------------------------------------------------------------------------------------|
G|--12-12-----8-8-------------10---10------12--------8-------10---------------------------|
D|--12-12-----8-8-----8-8-----10---10------12--------8-------10---------------------------|
A|--10-10-----6-6-----8-8-----8----8-------10--------6-------8----------------------------|
E|--------------------6-6-----------------------------------------------------------------|
......led by the templars of steel
ENDING
e|-------------------------------------------------------------|
B|-------------------------------------------------------------|
G|--12--------8--------10--------------------------------------|
D|--12--------8--------10---------------11-10-8-----5-5--------|
A|--10--------6--------8------------------------11--5-5--------|
E|--------------------------------------------------3-3--------|
You are the templars of steel
THE END




Ваше мнение



Капча