STRONGER THAN ALL
FROM LEGACY OF KINGS ALBUM
BY HAMMERFALL

TABBED BY ANDREAS ЦНRN

NOTE: TUN EA HALF STEP DOWN TO Eb

INTRO:
FIRST PART:
E|-------------------------------------------------------------------------|
B|-------------------------------------------------------------------------|
G|---------------5--7--9--5-----------------------------4------------------|
D|---5--4--2--5--5--7--9--5-----------------------------4------------------|
A|---5--4--2--5--3--5--7--3-3-3-3-3-3-3-3-3-3-3-3-3-3-3-2-2-2-2-2-2-2-2-2--|
E|---3--2--0--3------------------------------------------------------------|
| P.M.................... | | P.M.......... |
SECOND PART:
E|---------------------------------------|--------------------------------|
B|---------------------------------------|--------------------------------|
G|---------------------5--7--9--------7--|--------------------------------|
D|---------5--4--2--5--5--7--9--7--5--7--|--2--------------12--9----------|
A|---2-2-2-5--4--2--5--3--5--7--7--5--5--|--2--------------10--7--9--10---|
E|---------3--2--0--3-----------5--3-----|--0--0-0-0-0-0-0--------7---8---|
| P.M | | P.M...... |

E|-----------------------------------------------------------------------|
B|-----------------------------------------------------------------------|
G|-----------------------------------------------------------------------|
D|---------------7------------------9-------------12--9------------------|
A|---------------------10-----9-----7-------------10--7--9--10-----------|
E|---0-0-0-0-0-0---0-0----0-0---0-0---0-0-0-0-0-0--------7---8-0-0-0-0---|
| P.M...... | |P.M| |P.M| |P.M| | P.M...... | | P.M.. |

E|-----------------------------------------------------------------------|
B|-----------------------------------------------------------------------|
G|-----------------------------------------------------------------------|
D|--------------7-----------9-------------12--9--------------------7-----|
A|-------10-----------9-----7-------------10--7--9--10-------------------|
E|---0-0----0-0---0-0---0-0---0-0-0-0-0-0--------7---8-0-0-0-0-0-0---0-0-|
|P.M| |P.M| |P.M| |P.M| | P.M...... | | P.M...... | |P.M|

E|--------------------------------------------------------------------------|
B|--------------------------------------------------------------------------|
G|--------------------------------------------------------------------------|
D|----------------9-------------12--9---------------------------7-----------|
A|---10-----9-----7-------------10--7--9--10-------------10-----------9-----|
E|------0-0---0-0---0-0-0-0-0-0--------7---8-0-0-0-0-0-0----0-0---0-0---0-0-|
|P.M| |P.M| | P.M...... | | P.M...... | |P.M| |P.M| |P.M|

VERSE:
E|---------------------------------------------------------|
B|---------------------------------------------------------|
G|---9---4-5---7-9---4-5-----------------4-5---5-------4---|
D|---9---4-5---7-9---4-5---7---5--4--2---4-5---5---7---4---|
A|---7---2-3---5-7---2-3---7---5--4--2---2-3---3---7---2---|
E|-------------------------5---3--2--0-------------5-------|

BRIDGE 1:
E|-------------------------------------------------------------------------------|
B|-------------------------------------------------------------------------------|
G|---------------------------------7---------------------------------------------|
D|---5-----------------------------7-----------------------------7---------------|
A|---5-----------------------------5-5-5-5-5-5-5-5-5-5-5-5-5-5-5-7---------------|
E|---3-3-3-3-3-3-3-3-3-3-3-3-3-3-3-------------------------------5-5-5-5-5-5-5-5-|
| P.M...................... | | P.M...................... | | P.M........ |

E|-------------------------------------------------------------------------------|
B|-------------------------------------------------------------------------------|
G|-----------------9-----------------------------5-----------------5---5---5-----|
D|-----------------9-----------------------------5-----------------5---5---5-5---|
A|-----------------7-7-7-7-7-7-7-7-7-7-7-7-7-7-7-3-3-3-3-3-3-3-3-3-3-3-3-3-3-5---|
E|---5-5-5-5-5-5-5-----------------------------------------------------------3-3-|
| P.M........ | | P.M...................... | | P.M.......... | |P| |M| |P.M|

E|---------------------------------------------------------------|
B|---------------------------------------------------------------|
G|---------------------------7-------------7-------------4-4-4---|
D|-----------------5---5---5-7-------------7-------------4-4-4---|
A|-----------------5---5---5-5-5-5-5-5-5-5-5-5-5-5-5-5-5-2-2-2---|
E|---3-3-3-3-3-3-3-3-3-3-3-3-------------------------------------|
| P.M........ | |P| |M| | P.M...... | |P.M....... |

CHORUS:
E|-------------------------------------------------------------------------------|
B|-------------------------------------------------------------------------------|
G|---------------5--7--9--5-----------------------------4------------------------|
D|---5--4--2--5--5--7--9--5-----------------------------4------------------------|
A|---5--4--2--5--3--5--7--3-3-3-3-3-3-3-3-3-3-3-3-3-3-3-2-2-2-2-2-2-2-2-2-2-2-2--|
E|---3--2--0--3------------------------------------------------------------------|
| P.M...................... | | P.M................. |

E|----------------------------------|
B|----------------------------------|
G|---------------5--7--9--------7---|
D|---5--4--2--5--5--7--9--7--5--7---|
A|---5--4--2--5--3--5--7--7--5--5---|
E|---3--2--0--3-----------5--3------|

AFTER CHORUS:
SECOND PART OF INTRO

VERSE:
SAME AS ABOVE

BRIDGE:
SAME AS BRIDGE 1

CHORUS:
SAME AS ABOVE

BRIDGE 2:
E|----------------------------------------------------------------------------|
B|----------------------------------------------------------------------------|
G|----------------------------------------------------------------------------|
D|----------------------------------------------------------------------------|
A|---10-10-10-9-9-9-9-9-9-10-10-10-9-9-9-7-9-10-10-10-9-9-9-9-9-9-7-7-7-7-7-7-|
E|----------------------------------------------------------------------------|
| P.M.............................. | | P.M........................... |

E|----------------------------------------------------------------------------|
B|----------------------------------------------------------------------------|
G|----------------------------------------------------------------------------|
D|----------------------------------------------------------------------------|
A|---7-9-10-10-10-9-9-9-10-10-10-9-9-9-7-9-10-10-10-9-9-9-9-7-7-7-7-7---------|
E|----------------------------------------------------------------------------|
| P.M........................ | | P.M................... |
PLAY THIS PART ABOVE TWICE THEN THE PART BELOW TWICE
E|----------------------------------------------------------------------------|
B|----------------------------------------------------------------------------|
G|----------------------------------------------------------------------------|
D|-------7-----5-----7-----8-----7-----5-----3-----------3-----5-----3--------|
A|-------------------------------------------------7-----------------------7--|
E|---5-5---5-5---5-5---5-5---5-5---5-5---3-3---3-3---3-3---3-3---3-3---3-3----|
|P.M| |P.M| |P.M| |P.M| |P.M| |P.M| |P.M| |P.M| |P.M| |P.M| |P.M| |P.M|

E|----------------------------------------------------|
B|----------------------------------------------------|
G|-------------------------------------------------5--|
D|-------7-----5-----7-----8-----7-----5-----3--3--5--|
A|----------------------------------------------3--3--|
E|---3-3---5-5---5-5---5-5---5-5---5-5---5-5----1-----|
|P.M| |P.M| |P.M| |P.M| |P.M| |P.M| |P.M|

SOLO:
E|---------------------------------------------------------------------------|
B|---------------------------------------------------------------------------|
G|---4---------------------------------------------------------------4-------|
D|---4---------------------------------------------------------------4-------|
A|---2-2-2-2-2-2-2-2-X-LOTS-OF-TIMES---------------------------------2-2-2-2-|
E|-----------------------------------3-3-3-3-3-3-3-3-5-5-5-5-5-5-5-5---------|
| P.M........... ALL

E|------------------------------------------------------------------------------------|
B|------------------------------------------------------------------------------------|
G|------------------------------------------------------------7-----9--5-----7--4-4-4-|
D|---------------------------------------------------------5--7--7--9--5--5--7--4-4-4-|
A|---2-2-2-X-LOTS-OF-TIMES---------------------------------5--5--7--7--3--5--5--2-2-2-|
E|-------------------------3-3-3-3-3-3-3-3-5-5-5-5-5-5-5-5-3-----5--------3-----------|
| P.M................................................. |

CHORUS:

SAME AS ABOVE X 2

OUTRO:
E|-----------------------------------------------------------------------------------|
B|-----------------------------------------------------------------------------------|
G|---9-------------------------------------------------------------------------------|
D|---9-------------12-9------------------7------------------9-------------12-9-------|
A|---7-------------10-7-9-10-------------------10-----9-----7-------------10-7-9-10--|
E|-----0-0-0-0-0-0------7--8-0-0-0-0-0-0---0-0----0-0---0-0---0-0-0-0-0-0------7--8--|
| P.M...... | | P.M...... | |P.M| |P.M| |P.M| |P.M....... |

E|-----------------------------------------------------------------------------------|
B|-----------------------------------------------------------------------------------|
G|-----------------------------------------------------------------------------------|
D|----------------------7-----------9-------------12-9------------------7------------|
A|---------------10-----------9-----7-------------10-7-9-10-------------------10-----|
E|---0-0-0-0-0-0----0-0---0-0---0-0---0-0-0-0-0-0------7--8-0-0-0-0-0-0---0-0----0-0-|
| P.M...... | |P.M| |P.M| |P.M| | P.M...... | | P.M...... | |P.M| |P.M|

E|--------------------------------------------------------------------------|
B|--------------------------------------------------------------------------|
G|--------------------------------------------------------------------------|
D|---------9-------------12-9------------------5-5-5-7---7-7-5-5---5-5-7-9--|
A|---9-----7-------------10-7-9-10-------------3-3-5-5---5-5-5-3---3-3-5-7--|
E|-----0-0---0-0-0-0-0-0------7--8-0-0-0-0-0-0------------------------------|
|P.M| | P.M...... | | P.M...... |




Ваше мнение



Капча