Это только ритм партия,к сожалению,соло подобрать я не смог.
НЕ знаю все ли здесь правильно.Но надеюсь вам понравится.:)
intro:
clean
e:---0-----0------0-------------------------------------------------------0---------------2-----2---
B:-----1-----1---------3-1---3-1---3---3-0---3-0---3---1--------1-----------1-----1-----2---2-----2-
G:-------2-----2-----------0-----0---0-----0-----0-------2----2---2-----2-----2-------0-------0-----
D:---------------------------------------------------3------2---------2---------2-------------------
A:-0----------------0-------------------------------------0---------0---------------2---------------
E:--------------------------------------------------------------------------------------------------
e:-------0-1----------1-0-1-
B:-----3-----3------1-------
G:---2---------2------------
D:-0--------------3---------
A:--------------------------
E:--------------------------

verse:
e:---0-----0------0-------------------------------------------------------0---------------2-----2---
B:-----1-----1---------3-1---3-1---3---3-0---3-0---3---1--------1-----------1-----1-----2---2-----2-
G:-------2-----2-----------0-----0---0-----0-----0-------2----2---2-----2-----2-------0-------0-----
D:---------------------------------------------------3------2---------2---------2-------------------
A:-0----------------0-------------------------------------0---------0---------------2---------------
E:--------------------------------------------------------------------------------------------------
e:-------0-1----------1-0-1-
B:-----3-----3------1-------
G:---2---------2------------ x2
D:-0--------------3---------
A:--------------------------
E:--------------------------
bridge:
Too late to turn...
e:---------0---------------3-----3-------0-1------------------------------0-------3------------------------3--------
B:-------2---2---------------0---------3-----3-----------0-1------------1-------3---------0-1----------------2------
G:-----0-------0---------0-----0-----2---------2-------3-----3--------2-------4---------3-----3----------------0----
D:---2-----------2-----0-----------0-------------0---2---------2----3-------5---------2---------2--------0-------0--
A:-3-----------------2-----------------------------0-------------0------------------0-------------0----2------------
E:-----------------3---------------------------------------------------------------------------------3--------------
dist.
p.m . . . . .
e:-----------------
B:-----------------
G:-----------------
D:-----------------
A:-3---3-3-3-3-3-5-
E:-1---1-1-1-1-1-3-
chorus:
Remember Yesterday...
e:----------------------------------------------------
B:----------------------------------------------------
G:----------------------------------------------------
D:-2---5--4---------5---7----2---5--4---------5-------
A:-2---3--2--2-4-5--3-5-5----2---3--2--2-4-5--3-5-7---
E:-0---------0-2-3----3------0---------0-2-3----3-5---
clean
e:---0-----0------0-------------------------------------------------
B:-----1-----1---------3-1---3-1---3---3-0---3-0---3---1--------1---
G:-------2-----2-----------0-----0---0-----0-----0-------2----2---2-
D:---------------------------------------------------3------2-------
A:-0----------------0-------------------------------------0---------
E:------------------------------------------------------------------

verse:
e:---0-----0------0-------------------------------------------------------0---------------2-----2---
B:-----1-----1---------3-1---3-1---3---3-0---3-0---3---1--------1-----------1-----1-----2---2-----2-
G:-------2-----2-----------0-----0---0-----0-----0-------2----2---2-----2-----2-------0-------0-----
D:---------------------------------------------------3------2---------2---------2-------------------
A:-0----------------0-------------------------------------0---------0---------------2---------------
E:--------------------------------------------------------------------------------------------------
e:-------0-1----------1-0-1-
B:-----3-----3------1-------
G:---2---------2------------
D:-0--------------3---------
A:--------------------------
E:--------------------------

bridge:
Too late to turn...
e:---------0---------------3-----3-------0-1------------------------------0-------3------------------------3--------
B:-------2---2---------------0---------3-----3-----------0-1------------1-------3---------0-1----------------2------
G:-----0-------0---------0-----0-----2---------2-------3-----3--------2-------4---------3-----3----------------0----
D:---2-----------2-----0-----------0-------------0---2---------2----3-------5---------2---------2--------0-------0--
A:-3-----------------2-----------------------------0-------------0------------------0-------------0----2------------
E:-----------------3---------------------------------------------------------------------------------3--------------
dist.
p.m . . . . .
e:-----------------
B:-----------------
G:-----------------
D:-----------------
A:-3---3-3-3-3-3-5-
E:-1---1-1-1-1-1-3-
chorus:
Remember Yesterday...
e:----------------------------------------------------
B:----------------------------------------------------
G:----------------------------------------------------
D:-2---5--4---------5---7----2---5--4---------5-------
A:-2---3--2--2-4-5--3-5-5----2---3--2--2-4-5--3-5-7---
E:-0---------0-2-3----3------0---------0-2-3----3-5---
bridge 2:
Oh oh... p.m . . . . . . . . .. ..
e:-------------------------------------------------------------------------
B:-------------------------------------------------------------------------
G:-------------------------------------------------------------------------
D:--pick-------------------------------------------------------------------
A:--slide---3--7--5--7-7-7--5-5-5--3--7--5--3-3-3--5-5-5--7--7-77-7-77-7---
E:----------1--5--3--5-5-5--3-3-3--1--5--3--1-1-1--3-3-3--5--5-55-5-55-5---
solo:
I may tab lead part later..
guitar 2:
p.m .. .. .. .. . . . . .
e:------------------------------------------------------------------------
B:------------------------------------------------------------------------
G:------------------------------------------------------------------------
D:----7--------------------------------7----------------------------------
A:-3--5--7-77-7-77-7-5---3--3-5-7---3--5--7-77-7-77-7-5---3---3-3-3-3-3-5-
E:-1-----5-55-5-55-5-3---1--1-3-5---1-----5-55-5-55-5-3---1---1-1-1-1-1-3-

chorus:
Remember Yesterday...
p.m .. ..
e:----------------------------------------------------------------
B:----------------------------------------------------------------
G:----------------------------------------------------------------
D:-2---5--4---------5---7---7-77-7-77-7--2---5--4---------5-------
A:-2---3--2--2-4-5--3-5-5---5-55-5-55-5--2---3--2--2-4-5--3-5-7---
E:-0---------0-2-3----3------------------0---------0-2-3----3-5---
bridge 2:
Oh oh... p.m . . . . . . . . . . . . . . . .
e:---------------------------------------------------------------------------------------------------------
B:---------------------------------------------------------------------------------------------------------
G:---------------------------------------------------------------------------------------------------------
D:--pick---------------------------------------------------------------------------------------------------
A:--slide---3--7--5--7-7-7--5-5-5--3--7--5--3-3-3--5-5-5---3--7--5--7-7-7--5-5-5--3--7--5--3-3-3--5-5-5-7--
E:----------1--5--3--5-5-5--3-3-3--1--5--3--1-1-1--3-3-3---1--5--3--5-5-5--3-3-3--1--5--3--1-1-1--3-3-3-5--
outro:
clean
e:---0-----0------0-------------------------------------------------------0---------------2-----2---
B:-----1-----1---------3-1---3-1---3---3-0---3-0---3---1--------1-----------1-----1-----2---2-----2-
G:-------2-----2-----------0-----0---0-----0-----0-------2----2---2-----2-----2-------0-------0-----
D:---------------------------------------------------3------2---------2---------2-------------------
A:-0----------------0-------------------------------------0---------0---------------2---------------
E:--------------------------------------------------------------------------------------------------
e:-------0-1----------1-0-1-----1-
B:-----3-----3------1-------1-----
G:---2---------2------------------
D:-0--------------3-----------3---
A:--------------------------------
E:--------------------------------
end..

Tablature explanation:
p.m = Palm Mute




Ваше мнение



Капча