RAVENLORD (STOMWITCH COVER)
BY
HAMMERFALL
TABBED BY DANIEL KALANDER
TUNE DOWN 1/2 STEP

INTRO RIFF 1 x4
e|-4------3------4------3------4---3----|
B|---6------4------6------4-------------|
G|-----5------5------5------5----5---5--|
D|--------------------------------------|
A|--------------------------------------|
E|--------------------------------------|
INTRO RIFF 2
e|-----------------------------------------------------------------------|
B|-----------------------------------------------------------------------|
G|-------------------------------8--5-------------------------7--5--3----|
D|-7---5-7--------------7---5-7--8--5--7---5-7----------------7--5--3----|
A|-5-3-3-5--5-5-7-7-8-8-5-3-3-5--6--3--5-3-3-5--5-5-7-7-8-8---5--3--1----|
E|----------------------------------------------------------5------------|
VERSE
e|-----------------------------------------------------------------|
B|-----------------------------------------------------------------|
G|-----------5--7---7------------5------------7---7---------3-5----|
D|-3-3-3-3-3-5--7---7------------5--5---------7---7---------3-5----|
A|-1-1-1-1-1-3--5-5-5------------3--5-------3-5-5-5---------1-3----|
E|----------------------------------3---3-5------------------------|

VERSE RIFF 2
e|-------------------------------------------------------|
B|-------------------------------------------------------|
G|----7---7------------5------------7---7---------3-5----|
D|----7---7------------5--5---------7---7---------3-5----|
A|----5-5-5------------3--5-------3-5-5-5---------1-3----|
E|------------------------3---3-5------------------------|

INTRO RIFF 2 x2
VERSE RIFF 2 x2

BRIDGE
e|----------------------------------------------------------------------------------------|
B|----------------------------------------------------------------------------------------|
G|-------9-------9--12--11--7--9--------9------9--12--11--7--9----------------------------|
D|-------9-------9--12--11--7--9--------9------9--12--11--7--9--5-5-5-5-5-5-4-4-4-4-4-4---|
A|-------7-------7--10--9---5--7--------7------7--10--9---5--7--3-3-3-3-3-3-2-2-2-2-2-2---|
E|-0-0-0---0-0-0------------------0-0-0--0-0-0--------------------------------------------|

e|--------------------------|
B|--------------------------|
G|---7-----7-----7-----7----|
D|-5-7---5-7---5-7---5-7----|
A|-5-5-5-5-5-5-5-5-5-5-5----|
E|--------------------------|
???????????????????????


CHORUS
e|--------------------------------------------------------------|
B|--------------------------------------------------------------|
G|-7--5------------------5h7-7---7--9----------------------7----|
D|-7--5--3-3-3-3-5-5-5-5-5h7-7---7--9--10-10-10-10-5-5-5-5-7----|
A|-5--3--1-1-1-1-3-3-3-3-5---5---5--7--8--8--8--8--3-3-3-3-5----|
E|--------------------------------------------------------------|
e|-------------------------------------------------------------------|
B|-------------------------------------------------------------------|
G|-7--5------------------5h7-7---7--9--10----3----5------------------|
D|-7--5--3-3-3-3-5-5-5-5-5h7-7---7--9--10----3----5---------7-5-7----|
A|-5--3--1-1-1-1-3-3-3-3-5---5---5--7--8-----1----3---------5-3-5----|
E|-------------------------------------------------------------------|
INTRO RIFF 2 x2
VERSE RIFF 2 x2
BRIDGE
CHORUS

SOLO RHYTHM
e|------------------------------------------------------------------------------|
B|------------------------------------------------------------------------------|
G|-----------------------------------------------------------------------7-7----|
D|-9-9-9-9-9-9-9-7-5-5-5-5-7-7-7-7-9-9-9-10-10-9-9-7-7------------7---9--7-7----| x2
A|-7-7-7-7-7-7-7-5-3-3-3-3-5-5-5-5-7-7-7---------------10-10-9-9--7---9--5-5----|
E|----------------------------------------------------------------5---7---------|
e|------------------------------------------------------------------------------|
B|------------------------------------------------------------------------------|
G|-------------------------------------------------------------------5-5--------|
D|-7-7-7-7-7-7-7-5-3-3-3-3-5-5-5-5-7-7-7-8-8-7-7-5-5----------5---7--5-5--------| x2
A|-5-5-5-5-5-5-5-3-1-1-1-1-3-3-3-3-5-5-5-------------8-8-7-7--5---7--3-3--------|
E|------------------------------------------------------------3---5-------------|
INTRO RIFF 1 x2
BRIDGE
CHORUS 2
e|--------------------------------------------------------------|
B|--------------------------------------------------------------|
G|-7--5------------------5h7-7---7--9----------------------7----|
D|-7--5--3-3-3-3-5-5-5-5-5h7-7---7--9--10-10-10-10-5-5-5-5-7----|
A|-5--3--1-1-1-1-3-3-3-3-5---5---5--7--8--8--8--8--3-3-3-3-5----|
E|--------------------------------------------------------------|
e|---------------------------------------------------------|
B|---------------------------------------------------------|
G|-7--5------------------5h7-7---7--9--10----3----5--------|
D|-7--5--3-3-3-3-5-5-5-5-5h7-7---7--9--10----3----5--------|
A|-5--3--1-1-1-1-3-3-3-3-5---5---5--7--8-----1----3--------|
E|---------------------------------------------------------|
e|--------------------------------------------------------------|
B|--------------------------------------------------------------|
G|-7--5------------------5h7-7---7--9----------------------7----|
D|-7--5--3-3-3-3-5-5-5-5-5h7-7---7--9--10-10-10-10-5-5-5-5-7----|
A|-5--3--1-1-1-1-3-3-3-3-5---5---5--7--8--8--8--8--3-3-3-3-5----|
E|--------------------------------------------------------------|
e|--------------------------------------------------------------|
B|--------------------------------------------------------------|
G|-7--5------------------5h7-7----------------------------------|
D|-7--5--3-3-3-3-5-5-5-5-5h7-7---------------10--9--7--5--7----|
A|-5--3--1-1-1-1-3-3-3-3-5---5---------------8---7--5--3--5----|
E|--------------------------------------------------------------|




Ваше мнение



Капча