. - palm mute * - see comment
~ - vibrato x - percussion note
/ - slide up to - slide down to
h - hammer on p - pull off
b - bend b+r - bend and release
" - tremolo note ph - pinch harmonic
sh - semi harmonic
Tune To Eb (Eb,Ab,Db,Gb,Bb,Eb)
Riff A (Play A Total Of 1 Time)
-----------------------------|
-----------------------------|
-----------------------------|Gtr II
|-7-7777-7-77777777--553322----3322------| Only
|-5-5555-5-55555555--------55------5533--|
-----------------------------|
.... ........ ........ ........


-----------------------------|
-----------------------------|
-----------------------------|Gtr I
-------------------2--3------|
-------------------0--1------|
-----------------------------|
| |
| |
-----------------------------|
-----------------------------|
-----------------------------|Gtr II
|-3-3333-3-33333333--553322----2--3------|
|-1-1111-1-11111111--------55------------|
-----------------------------|
.... ........ ........

-----------------------------|
-----------------------------|
---------222-------22--------|Gtr I
|-7------7--------------55533----553322--|
|-5------5-------------------------------|
-----------------------------|
| ........ ........ |
| |
-----------------------------|
-----------------------------|
-----------------------------|Gtr II
|-7-7777-7-77777777--553322----3322------|
|-5-5555-5-55555555--------55------5533--|
-----------------------------|
.... ........ ........ ........

-----------------------------|
-----------------------------|
---------3322----------------|Gtr I
|-3------3---------------5533--2--3------|
|-1------1---------------------0--1------|
-----------------------------|
| |
| |
-----------------------------|
-----------------------------|
-----------------------------|Gtr II
|-3-3333-3-33333333--553322----2--3------|
|-1-1111-1-11111111--------55------------|
-----------------------------|
.... ........ ........
Riff B (Play A Total Of 1 Time)
-----------------------------|
-----------------------------|
-----------------------------|Gtr I
|-7-7777-7-77777777--553322----3322------|
|-5-5555-5-55555555--------55------5533--|
-----------------------------|
| .... ........ ........ ........ |
| |
-----------------------------|
-----------------------------|
-----------------------------|Gtr II
|-7-7777-7-77777777--553322----3322------|
|-5-5555-5-55555555--------55------5533--|
-----------------------------|
.... ........ ........ ........

-----------------------------|
-----------------------------|
---------3322------22--------|Gtr I
|-7-7777-7-77777777------5533----553322--|
|-5-5555-5-55555555----------------------|
-----------------------------|
| .... ........ ........ ........ |
| |
-----------------------------|
-----------------------------|
-----------------------------|Gtr II
|-7-7777-7-77777777--553322----3322------|
|-5-5555-5-55555555--------55------5533--|
-----------------------------|
.... ........ ........ ........
Riff C (Play A Total Of 1 Time)
-----------------------------|
-----------------------------|
-----------------------------|Gtrs I
|-3-3333-3-33333333-----------------2-3--| & II
|-1-1111-1-11111111---5----(5)------0-1--|
----------3----(3)-----------|
.... ........

Repeat Riff B (Play A Total Of 1 Time)
Repeat Riff C (Play A Total Of 1 Time)

Riff D (Play A Total Of 1 Time)
-------------------------------------------------------------|
------------------------3------------------------------------|
|-4------6------4-----4------6------4------------------------------------|
|-4------4------4-----4------4------4------------------------------9-7-6-|
|---2222---2222---22----0000---0000---00-5------4---5---2-2-4-5-4--7-5-4-|
-------------------------------3333---33-33-0-0-2-3-2--------|
| .... .... .. .... .... .. .... .. .. |
| |
-------------------------------------------------------------|
------------------------3----3-------------------------------|
|-4------6------4-----4------6------4----4------6---7--------------------|
|-4------4------4-----4------4------4-----------4---4--------------9-7-6-|
|---2222---2222---22----0000---0000---00----------------2-2-4-5-4--7-5-4-|
-------------------------------3333---33-33-0-0-2-3-2--------|
.... .... .. .... .... .. .... .. ..

-------------------------------------------------------------|
-------------------------------------------------------------|
|-4------6------4-----4------6------7------------------------------------|
|-4------4------4-----4------4------4------------------------------976-|
|---2222---2222---22----0000---0000---00-5------4-----5-----2-4-5--754-|
-------------------------------3333---3333--33--0-2-3--------|
| .... .... .. .... .... .. .... .... .. |
| |
-------------------------------------------------------------|
------------------------3----3-------------------------------|
|-4------6------4-----4------6------4----4------6-----7------------------|
|-4------4------4-----4------4------4-----------4-----4------------976-|
|---2222---2222---22----0000---0000---00--------------------2-4-5--754-|
-------------------------------3333---3333--33--0-2-3--------|
.... .... .. .... .... .. .... .... ..
Riff E.1 (Play A Total Of 1 Time)
-----------------------|
-----------------------|
-----------------------|Gtrs I
|-7----(7)----5--3---(3)---5----2--| & II
|-5----(5)----3--1---(1)---3----0--|
-----------------------|

-----------------------|
-----------------------|
-----------------------|Gtrs I
|-7----(7)----5--3---(3)--------2--| & II
|-5----(5)----3--1---(1)---5----0--|
---------------3-------|

Riff F (Play A Total of 2 Times)
-----------------------------|
-----------------------------|
---------3322------22--------|Gtr I
|-7-7777-7-77777777------5533----553322--|
|-5-5555-5-55555555----------------------|
-----------------------------|
| .... ........ ........ ........ |
| |
-----------------------------|
-----------------------------|
-----------------------------|Gtr II
|-7-7777-7-77777777--553322----3322------|
|-5-5555-5-55555555--------55------5533--|
-----------------------------|
.... ........ ........ ........

-----------------------------|
-----------------------------|
---------3322----------------|Gtr I
|-3-3333-3-33333333------5533--2--3------|
|-1-1111-1-11111111------------0--1------|
-----------------------------|
| .... ........ |
| |
-----------------------------|
-----------------------------|
-----------------------------|Gtr II
|-3-3333-3-33333333--553322----2--3------|
|-1-1111-1-11111111--------55------------|
-----------------------------|
.... ........ ........
Play Riff B (A Total of 1 Time)
Play Riff C (A Total of 1 Time)
Play Riff B (A Total of 1 Time)
Play Riff C (A Total of 1 Time)
Play Riff D (A Total of 2 Times)
Play Riff E.1 (A Total of 2 Times)
Riff G (Play A Total Of 1 Time) * = slight A.H.
-------------------------------------------------|
-------------------------------------------------|
---------------*---------------------------------|Gtr I
|-9---------10----9----7---9---------------------------------|
|-7-777777-----77---77---7-----777777--------10-10-9-9-------|
---------------------------10-10-----------10-10-|
| ...... .. .. . .. . . ...... .. .. .. .. . . .. .. |
| |
-------------------------------------------------|
-------------------------------------------------|
-------------------------------------------------|Gtr II
|-2------------------------2------------7---/12---11---7----|
|-2------------------------2------------5---/10----9---5----|
|-0------------------------0---------------------------------|

-------------------------------------------------|
-------------------------------------------------|
-------------------------------------------------|Gtr I
|-9---------10----9----7---9---------------------------------|
|-7-777777-----77---77---7-----777777--------7-7-9-9-10-10---|
---------------------------10-10-----------------|
| ...... .. .. . .. . . ...... .. .. . . . . .. .. |
| |
-------------------------------------------------|
-------------------------------------------------|
-------------------------------------------------|Gtr II
|-2------------------------2---------------------------------|
|-2------------------------2-----------------7-7-9-9-10-10---|
|-0------------------------0-----------10-10-----------------|
.. .. . . . . .. ..

-------------------------------------------------|
-------------------------------------------------|
-------------------------------------------------|Gtr I
|-9---------10----9----7---9---------------------------------|
|-7-777777-----77---77---7-----777777--------10-10-9-9-------|
---------------------------10-10-----------10-10-|
| ...... .. .. . .. . . ...... .. .. .. .. . . .. .. |
| |
-------------------------------------------------|
-------------------------------------------------|
-------------------------------------------------|Gtr II
|-2----------(2)-------------(2)--------7---/12---11---7----|
|-2----------(2)-------------(2)--------5---/10----9---5----|
|-0----------(0)-------------(0)-----------------------------|

-----------------------|
-----------------------|
-----------------------|Gtrs I
-----------------------| & II
|-10---(10)--------7-----5-----7--|
|--8---( 8)--------5-----3-----5--|

Riff H (Play A Total Of 1 Time)
-------------------------------------------------|
-------------------------------------------------|
-------------------------------------------------|Gtr I
|-9---------10----9----7---9---------------------------------|
|-7-777777-----77---77---7-----777777--------10-10-9-9-------|
---------------------------10-10-----------10-10-|
| ...... .. .. . .. . . ...... .. .. .. .. . . .. .. |
| |
-------------------------------------------------|
-------------------------------------------------|
-------------------------------------------------|Gtr II
|-9----------------------------------------------------------|
|-7777-7777-7777-7777-7777-7777--------------10-10-9-9-------|
|-0000-0000-0000-0000-0000-0000--------10-10-----------10-10-|
... .... .... .... .... .... .. .. .. .. . . .. ..

-------------------------------------------------|
-------------------------------------------------|
-------------------------------------------------|Gtr I
|-9---------10----9----7---9---------------------------------|
|-7-777777-----77---77---7-----777777--------7-7-9-9-10-10---|
---------------------------10-10-----------------|
| ...... .. .. . .. . . ...... .. .. . . . . .. .. |
| |
-------------------------------------------------|
-------------------------------------------------|
-------------------------------------------------|Gtr II
|-9----------------------------------------------------------|
|-7777-7777-7777-7777-7777-7777--------------7-7-9-9-10-10---|
|-0000-0000-0000-0000-0000-0000--------10-10-----------------|
... .... .... .... .... .... .. .. . . . . .. ..

-------------------------------------------------|
-------------------------------------------------|
-------------------------------------------------|Gtr I
|-9---------10----9----7---9---------------------------------|
|-7-777777-----77---77---7-----777777--------10-10-9-9-------|
---------------------------10-10-----------10-10-|
| ...... .. .. . .. . . ...... .. .. .. .. . . .. .. |
| |
-------------------------------------------------|
-------------------------------------------------|
-------------------------------------------------|Gtr II
|-9----------------------------------------------------------|
|-7777-7777-7777-7777-7777-7777--------------10-10-9-9-------|
|-0000-0000-0000-0000-0000-0000--------10-10-----------10-10-|
... .... .... .... .... .... .. .. .. .. . . .. ..

-------------------|
-------------------|
-------------------|Gtrs I
-------------------| & II
|-10---(10)--------7-----5----|
|--8---( 8)--------5-----3----|

Riff I *=artificial harmonic
--------------------------------------------------------|
|---------*---------------------------------------------------------|
|-4~---6--6hb+r-4--(4)--(4)~--(4)------9-9-x-7-9-11-11-11--9-11--9-|Gtr I
-------------------------2--7-7-x-7-7-------------------|
-------------------------0------------------------------|
--------------------------------------------------------|
| |
--------------------------------------------------------|
|---------*---------------------------------------------------------|
|-4~---6--6hb+r-4--(4)--(4)~--(4)------9-9-x-7-9-------------------|Gtr II
-------------------------2--7-7-x-7-7-12-12-12-11-12-11-|
-------------------------0------------------------------|
--------------------------------------------------------|
| |
--------------------------------------------------------|
--------------------------------------------------------|
--------------------------------------------------------|Gtr III
----6---7---9--------------------------7--------7-------|
|-9-------------4---5---7------------7-------------5--------4-------|
|-7----------------------------------5------------------------------|

----------------------------------------12--(12)-------|
-----------14hb+r-12-12~------12-14-15------------------|
--------------------------------------------------------|Gtr I
|-11hb+r-9~---------------------------------------------------------|
--------------------------------------------------------|
--------------------------------------------------------|
| |
--------------------------------------------------------|
--------------------------------------------------------|
|--9fb+r-7~-------------9fb+r--7--7~--------------------------------|Gtr II
----------------------------------------11--(11)-------|
--------------------------------------------------------|
--------------------------------------------------------|
| |
--------------------------------------------------------|
--------------------------------------------------------|
--------------------------------------------------------|Gtr III
----6-6-7---9------------------9------------------------|
|--9------------4-4-5---7------------------7---------7--------------|
|--7-------------------------------------------------5--------------|

*Gtr I Doubled an Octave Lower with an Octave Pedal
|-14-15-17-15-14------------14-15------14-15-17---------------------|
-----17-15---17---------17------------------------------|
--------------------------------------------------------|Gtr I
--------------------------------------------------------|
--------------------------------------------------------|
--------------------------------------------------------|
| |
--------------------------------------------------------|
--------------------------------------------------------|
--------------------------------------------------------|Gtr III
|--7----------------------7-----------------------------------------|
|--5----------------------4-----------------------------------------|
--------------------------------------------------------|

|-19~--------------------------------------------------------------|
--------------------------------------------------------|
--------------------------------------------------------|Gtr I
--------------------------------------------------------|
--------------------------------------------------------|
--------------------------------------------------------|
| |
-----------h------------10-12-14-10--14-15-17-19hb+r----|
---------12-13-10-12-13---------------------------------|
|--9-11-12---9-11-12------------------------------------------------|Gtr II
--------------------------------------------------------|
--------------------------------------------------------|
--------------------------------------------------------|
| |
--------------------------------------------------------|
--------------------------------------------------------|
--------------------------------------------------------|Gtr III
|--9---------------------------------------7--/--9--------9---------|
|--7---------------------------------------5--/--7--------7---------|
--------------------------------------------------------|

*xb=(bend strings 1 1/2 steps)
(up then release. )
p p p p *
|--17-15-14-12--14-12-10--10--14fb~-(14fb)+r--12xb-12xb-12xb-12xb---|
--------------------------------------------------------|
--------------------------------------------------------|Gtr II
--------------------------------------------------------|
--------------------------------------------------------|
--------------------------------------------------------|
| |
--------------------------------------------------------|
--------------------------------------------------------|
--------------------------------------------------------|Gtr III
|--(9)---------------------7-------------------9--------------------|
|--(7)---------------------5-------------------7--------------------|
--------------------------------------------------------|

|-12xb-10----10fb+r----15-17-19-17----------------------------------|
|---------12-----------------------X-15-13-12-11--------------------|
-------------------------------------14--12fb---12fb~+r-|Gtr II
--------------------------------------------------------|
--------------------------------------------------------|
--------------------------------------------------------|
| |
--------------------------------------------------------|
--------------------------------------------------------|
--------------------------------------------------------|Gtr III
--7---/---9-------9----------------------12-------------|
--5---/---7-------7----------------------10-----12------|
------------------------------------------------10------|

*=hold bend while playing notes
--------------------------------------------------------|
|------********************************-----h--p-h--p-h--p-h--p-----|
|-14fb-14-14-14-14-14-14-14-14-14-14-14+r--0-16-0-19-0-17-0-16-0----|Gtr II
--------------------------------------------------------|
--------------------------------------------------------|
--------------------------------------------------------|
| |
--------------------------------------------------------|
--------------------------------------------------------|
--------------------------------------------------------|Gtr III
|--9----------------------------------7-/-9---9---------------------|
|--7----------------------------------5-/-7---7---------------------|
--------------------------------------------------------|

* = tremelo pick all notes.
**************************************
------------15-14-12--14-12-----12----------------------|
|-h--p-h--p-h--p-h-p--------------------15-----15-13--15-13-12------|
|--14-0-12-0-11-0-9-0-----------------------------------------------|Gtr II
--------------------------------------------------------|
--------------------------------------------------------|
--------------------------------------------------------|
| |
--------------------------------------------------------|
--------------------------------------------------------|
--------------------------------------------------------|Gtr III
|---7---------------------------------------------------------------|
|---5-------------------10------------------------------------------|
-------------8------------------------------------------|

* = tremelo pick all notes.
******** p p p p
------------19-15------p--h------15-17-19-17-15-17-15-14|
|-13-12-----12----12/13-------12-12-10-12-12------------------------|
|-------14-----14---------------------------------------------------|Gtr II
--------------------------------------------------------|
--------------------------------------------------------|
--------------------------------------------------------|
| |
--------------------------------------------------------|
--------------------------------------------------------|
--------------------------------------------------------|Gtr III
--------------------------------------------------------|
----------7-----------------------------5---------------|
----------5-----------------------------3---------------|

p p
|-15--14-12-14-12-----20fb~-----------------------------------------|
--------------------------------------------------------|
--------------------------------------------------------|Gtr II
--------------------------------------------------------|
--------------------------------------------------------|
--------------------------------------------------------|
| |
--------------------------------------------------------|
--------------------------------------------------------|
--------------------------------------------------------|Gtr III
-----------7--------------------------------------------|
|--7-------------------5--------------------------------------------|
|--5----------------------------------------------------------------|

Riff E.2 (Play A Total of 1 Time)
---------------------------|
---------------------------|
---------------------------|Gtrs I
|-7-----7-7-7-7-7-5-3---(3)--/5----2--| & II
|-5-----5-5-5-5-5-3-1---(1)--/3----0--|
---------------------------|

---------------------------|
---------------------------|
---------------------------|Gtrs I
|-7-----7-7-7-7-7-5-3---(3)--------2--| & II
|-5-----5-5-5-5-5-3-1---(1)---5----0--|
-------------------3-------|
Riff J
-----------------------|
-----------------------|
-----------------------|Gtrs I
|10----(10)---8-6---(6)---8----5--| & II
|-8----( 8)---5-4---(4)---5----3--|
-----------------------|

-----------------------|
-----------------------|
-----------------------|Gtrs I
|10----(10)---8-6---(6)--------5--| & II
|-8----( 8)---6-4---(4)---8----3--|
---------------6-------|
Play Riff F (A Total of 2 Times)
Riff K (Play A Total Of 1 Time)
-------------------|
-------------------|
-------------------|Gtrs I
|-7--(7)---3---5----7-7-7-5-7--| & II
|-5--(5)---1---3----5-5-5-3-5--|
-------------------|




Ваше мнение



Капча