-----------------------------------------------------------------------------
Heeding the call - Hammerfall
Tabbed by:Neil Fergusson
Email:[email protected]
Tuning:Eb Ab Db Gb Bb eb
1st solo
e|---------------------------------------------------------------------------|
B|-----------------------------------------------8-10~~~-10-10-10~~~8-10-----|
G|--5~~~5-5-5--7--4h5p4~~~----------------7-9-10-------------------------9~~-|
D|-------------------------5-------------------------------------------------|
A|----------------------------7~~~-------------------------------------------|
E|---------------------------------------------------------------------------|
e|----------------------------------------------------------------------------|
B|----------------12-13-15--/18p13----13--18p13----13--------13----18p13------|
G|----------12-14------------------14-----------14--------14----14-------14---|
D|-12-14-15--------------------------------------------15---------------------|
A|----------------------------------------------------------------------------|
E|----------------------------------------------------------------------------|
e|--------/15p12----12---15p12----12-------12----15p12----12-----------------|
B|--13-----------13------------13-------13----13-------13--------------------|
G|-----------------------------------12--------------------------------------|
D|---------------------------------------------------------------------------|
A|---------------------------------------------------------------------------|
E|---------------------------------------------------------------------------|
e|--/20p15----15---19p15----15--------15----19p15----15----------------------|
B|---------17------------17--------17----17-------17-------------------------|
G|------------------------------17-------------------------------------------|
D|---------------------------------------------------------------------------|
A|---------------------------------------------------------------------------|
E|---------------------------------------------------------------------------|
e|-/20p15----15--19p15----15--20p15----15---20^^^^^^^^^^---------------------|
B|--------17-----------17-----------17---------------------------------------|
G|---------------------------------------------------------------------------|
D|---------------------------------------------------------------------------|
A|---------------------------------------------------------------------------|
E|---------------------------------------------------------------------------|
2nd solo
e|---------------------------------------------------------------------------|
B|------------------------------------------18-17-15----------------15-18~~~-|
G|---7(ph)~~~~~~~------------------14-15-17----------17-15-14-15-17----------|
D|------------------------14-15-17-------------------------------------------|
A|---------------------17----------------------------------------------------|
E|---------------------------------------------------------------------------|
sweep|______________________________________________|
e|---------17-------------15-------------13-------------12--------------------|
B|------18----18-------17----17-------15----15-------13----13--/15~~~~~~------|
G|---19-------------17-------------15-------------14--------------------------|
D|----------------------------------------------------------------------------|
A|----------------------------------------------------------------------------|
E|----------------------------------------------------------------------------|
|______________________trem. picking____________|
e|---/17-20-18-17-18----17----------------------------------------------------|
B|-------------------20----18-20-17-18-20-17-18----17-18--18-18~~~~~~~~~-----|
G|----------------------------------------------19---------------------------|
D|---------------------------------------------------------------------------|
A|---------------------------------------------------------------------------|
E|---------------------------------------------------------------------------|
| / slide up
| slide down
| h hammer-on
| p pull-off
| ~ vibrato
| + harmonic
| x Mute note
=============================================================================




Ваше мнение



Капча