tune guitars Ѕ step down!
Intro:
guit 1
p.m ........ .... .... ........ .... .... ........ .... .... ........ .... ....
e:-----------------------------------------------------------------------------------
B:-----------------------------------------------------------------------------------
G:-----------------------------------7777--------------------------------------------
D:-9--7--55555555-8888-5555-55555555------8888-----------------------------7777------
A:-7--5----------------------------------------55555555-8888-5555-55555555------8888-
E:-----------------------------------------------------------------------------------
........ .... .... ........ .... .... ........ ........ .... .... .... ....
e:-----------------------------------------------------------------------------
B:-----------------------------------------------------------------------------
G:-----------------------------7777--------------------------------------------
D:-55555555-8888-5555-55555555------8888-33333333-33333333-7777-3333-7777-3333-
A:-----------------------------------------------------------------------------
E:-----------------------------------------------------------------------------
guit 2

p.m . . . . . . . .
e:---------------------------------------------------------------------------
B:---------------------------------------------------------------------------
G:--------------------------------------3---------------------------------3--
D:-9--7----------------3--7-----7-----7-3----------------3--7-----7-----7-3--
A:-7--5--5-----5-----5-3--5-5*--5-5*--5---5-----5-----5--3--5-5*--5-5*--5----
E:-------3-3*--3-3*--3--------------------3-3*--3-3*--3----------------------

verse:
guit 1
p.m .
e:----------------------------------------------------------------
B:----------------------------------------------------------------
G:----------------------------------------------------------4-4-2-
D:----------------------------------------------------------------
A:-7--------5-5-7--------3-3-5--------3-3-7--------5-5-7-0*-------
E:-5--------3-3-5--------1-1-3--------1-1-5--------3-3-5----------
p.m. .. .. .. .. .. .. .. .. .. .. .. .. .. .. .. .
e:------------------------------------------------------------------------
B:------------------------------------------------------------------------
G:----5-5-44-77-55-77-44-77-55-77-44-77-55-77-44-77-55-4--3------2--4-0-0-
D:---------------------------------------------------------------3--5-0-0-
A:-0*--------------------------------------------------------0*-----------
E:------------------------------------------------------------------------
guit 2
p.m . . . . . . .
e:-----------------------------------------------------------------------------
B:-----------------------------------------------------------------------------
G:--------------------------------------------------------------------2--4-0-0-
D:--------------------------------------------------------------------3--5-0-0-
A:-7-----5-5-7-----3-3-5-----3-3-7-----5-5-7------3-3-5-----3-3-7--------------
E:-5-5*--3-3-5-5*--1-1-3-3*--1-1-5-5*--3-3-5-5*---1-1-3-3*--1-1-5-5*-----------

bridge:
all for one..
guit 1
this is really difficult to hear, so it´s probably not right... but you can play this.. :)
e:-----------------7p0------------------------------7p0-------------------------------7p0--------------
B:-5p0-4p0-5p0-7p0-----7p0-5p0-4p0--7p0-5p0-7p0-8p0-----8p0-7p0-5p0--8p0-7p0-8p0-10p0-----10p0-8p0-7p0-
G:-----------------------------------------------------------------------------------------------------
D:-----------------------------------------------------------------------------------------------------
A:-----------------------------------------------------------------------------------------------------
E:-----------------------------------------------------------------------------------------------------
e:-7p0--------------------------------
B:-----10p0-8p0-7p10-8p0-7p0-5p0-4p0--
G:------------------------------------ x2
D:------------------------------------
A:------------------------------------
E:------------------------------------
guit 2
e:--------------------------------------
B:--------------------------------------
G:-------------7--7---------------7--7--
D:-----4---5---5--4-------4---5---5--4--
A:-2---2---3----------2---2---3---------
E:-0------------------0-----------------


guit 1
p.m........ .... .... ........ .... .... ........ .... .... ........ .... ....
e:-----------------------------------------------------------------------------
B:-----------------------------------------------------------------------------
G:-----------------------------7777--------------------------------------------
D:-55555555-8888-5555-55555555------8888-----------------------------7777------
A:---------------------------------------55555555-8888-5555-55555555------8888-
E:-----------------------------------------------------------------------------
........ .... .... ........ .... .... ........ ........ .... .... .... ....
e:-----------------------------------------------------------------------------
B:-----------------------------------------------------------------------------
G:-----------------------------7777--------------------------------------------
D:-55555555-8888-5555-55555555------8888-33333333-33333333-7777-3333-7777-3333-
A:-----------------------------------------------------------------------------
E:-----------------------------------------------------------------------------
guit 2
e:-----------------------------------
B:-----------------------------------
G:--------------------------------3-- x2
D:---------------3--7----7-----7--3--
A:-5----5-----5--3--5----5-5*--5-----
E:-3----3-3*--3----------------------

chorus:

Hammerfall...
guit 1
p.m........ .... .... ........ .... .... ........ .... .... ........ .... ....
e:-----------------------------------------------------------------------------
B:-----------------------------------------------------------------------------
G:-----------------------------7777--------------------------------------------
D:-55555555-8888-5555-55555555------8888-----------------------------7777------
A:---------------------------------------55555555-8888-5555-55555555------8888-
E:-----------------------------------------------------------------------------
........ .... .... ........ .... .... ........ ........ .... .... .... ....
e:-----------------------------------------------------------------------------
B:-----------------------------------------------------------------------------
G:-----------------------------7777--------------------------------------------
D:-55555555-8888-5555-55555555------8888-33333333-33333333-7777-3333-7777-3333-
A:-----------------------------------------------------------------------------
E:-----------------------------------------------------------------------------
guit 2
e:-----------------------------------
B:-----------------------------------
G:--------------------------------3-- x2
D:---------------3--7----7-----7--3--
A:-5----5-----5--3--5----5-5*--5-----
E:-3----3-3*--3----------------------

break:
both guitars are playing the same thing...
e:-------------------------------------------------
B:-11-10-11----11-10-11----11-10-11----13-11-10----
G:----------12----------12----------12----------10-
D:-------------------------------------------------
A:-------------------------------------------------
E:-------------------------------------------------
guit 3
e:------------------------------
B:------------------------------
G:------------------------------
D:----3--5--8-10-----3--5--8-7--
A:-5--1--3--6-8---5--1--3--6-5--
E:-3--------------3-------------
with drums...
guit 1
e:-1515-1313-1515------1515-1313-1515------1515-1313-1515------1616-1515-1313------
B:----------------1616----------------1616----------------1616----------------1313-
G:---------------------------------------------------------------------------------
D:---------------------------------------------------------------------------------
A:---------------------------------------------------------------------------------
E:---------------------------------------------------------------------------------
guit 2
e:----------------------------------------
B:----------------------------------------
G:----------------------------------------
D:-5--8--10--13-15---5--8--10--13-12(15)--
A:-3--6--8---11-13---3--6--8---11-10(10)--
E:----------------------------------------
both guitars are playing the same thing...
e:-------------------------------------------------
B:-11-10-11----11-10-11----11-10-11----13-11-10----
G:----------12----------12----------12----------10-
D:-------------------------------------------------
A:-------------------------------------------------
E:-------------------------------------------------
guit 3
e:------------------------------
B:------------------------------
G:------------------------------
D:----3--5--8-10-----3--5--8-7--
A:-5--1--3--6-8---5--1--3--6-5--
E:-3--------------3-------------
solo:
guit 1
e:------------------------------------------------------------------------
B:------------------13--15h16-15h16-15------------------------------------
G:----6p3h6--/8-8-7--------------------12--/13-13-12p13h12-13-12-10-------
D:------------------------------------------------------------------13-12-
A:-3----------------------------------------------------------------------
E:------------------------------------------------------------------------
guit 2
e:-------------------------------
B:-------------------------------
G:-------------------------------
D:-5--8----------5--8--10--13-12-
A:-3--6--3--6-8--3--6--8---11-10-
E:-------1--4-6------------------

break:
both guitars are playing the same thing...
e:-------------------------------------------------
B:-11-10-11----11-10-11----11-10-11----13-11-10----
G:----------12----------12----------12----------10-
D:-------------------------------------------------
A:-------------------------------------------------
E:-------------------------------------------------
guit 3
e:------------------------------
B:------------------------------
G:------------------------------
D:----3--5--8-10-----3--5--8-7--
A:-5--1--3--6-8---5--1--3--6-5--
E:-3--------------3-------------

guit 1
e:-1515-1313-1515------1515-1313-1515------1515-1313-1515------1616-1515-1313------
B:----------------1616----------------1616----------------1616----------------1313-
G:---------------------------------------------------------------------------------
D:---------------------------------------------------------------------------------
A:---------------------------------------------------------------------------------
E:---------------------------------------------------------------------------------
guit 2
e:----------------------------------------
B:----------------------------------------
G:----------------------------------------
D:-5--8--10--13-15---5--8--10--13-12(15)--
A:-3--6--8---11-13---3--6--8---11-10(10)--
E:----------------------------------------
guit 1
e:-15-13-15----15-13-15----15-13-15-------
B:----------16----------16----------16----
G:----------------------------------------
D:----------------------------------------
A:----------------------------------------
E:----------------------------------------
guit 2
e:-16-15-16----16-15-16----16-15-16-------
B:----------17----------17----------17----
G:----------------------------------------
D:----------------------------------------
A:----------------------------------------
E:----------------------------------------
guit 3
e:----
B:----
G:----
D:-5--
A:-3--
E:----

chorus:

Hammerfall...
guit 1
p.m........ .... .... ........ .... .... ........ .... .... ........ .... ....
e:-----------------------------------------------------------------------------
B:-----------------------------------------------------------------------------
G:-----------------------------7777--------------------------------------------
D:-55555555-8888-5555-55555555------8888-----------------------------7777------
A:---------------------------------------55555555-8888-5555-55555555------8888-
E:-----------------------------------------------------------------------------
........ .... .... ........ .... .... ........ ........ .... .... .... ....
e:-----------------------------------------------------------------------------
B:-----------------------------------------------------------------------------
G:-----------------------------7777--------------------------------------------
D:-55555555-8888-5555-55555555------8888-33333333-33333333-7777-3333-7777-3333-
A:-----------------------------------------------------------------------------
E:-----------------------------------------------------------------------------
guit 2
e:-----------------------------------
B:-----------------------------------
G:--------------------------------3-- x2
D:---------------3--7----7-----7--3--
A:-5----5-----5--3--5----5-5*--5-----
E:-3----3-3*--3----------------------

verse:
guit 1
p.m . . .. .. .. .. .. .. .. .. .. .. .. .. .. .. .. . .. .. .. .. .. .. .. ..
e:----------------------------------------------------------------------------------------------------------
B:----------------------------------------------------------------------------------------------------------
G:------------4-4-2----5-5-44-77-55-77-44-77-55-77-44-77-55-77-44-77-55-4---3-------22-44-55-44-22-44-55-44-
D:----------------------------------------------------------------------------------------------------------
A:-0*---------------0*----------------------------------------------------------0*--------------------------
E:----------------------------------------------------------------------------------------------------------
p.m . . .. .. .. .. .. .. .. .. .. .. .. .. .. .. .. .
e:--------------------------------------------------------------------------------------------
B:--------------------------------------------------------------------------------------------
G:------------4-4-2----5-5-44-77-55-77-44-77-55-77-44-77-55-77-44-77-55-4---3-------2--4--0-0-
D:----------------------------------------------------------------------------------3--5--0-0-
A:-0*---------------0*----------------------------------------------------------0*------------
E:--------------------------------------------------------------------------------------------
guit 2
p.m . . . . . . . . .
e:------------------------------------------------------------------------------------------------
B:------------------------------------------------------------------------------------------------
G:---------------------------------------------------------------------------------------2--4-0-0-
D:---------------------------------------------------------------------------------------3--5-0-0-
A:-7-----5-5-7-----3-3-5-----3-3-7-----5-5-7------5-5-7-----3-3-5-----3-3-7-----5-5-7-------------
E:-5-5*--3-3-5-5*--1-1-3-3*--1-1-5-5*--3-3-5-5*---3-3-5-5*--1-1-3-3*--1-1-5-5*--3-3-5-5*----------

bridge:
all for one..
guit 1
e:-----------------7p0------------------------------7p0-------------------------------7p0--------------
B:-5p0-4p0-5p0-7p0-----7p0-5p0-4p0--7p0-5p0-7p0-8p0-----8p0-7p0-5p0--8p0-7p0-8p0-10p0-----10p0-8p0-7p0-
G:-----------------------------------------------------------------------------------------------------
D:-----------------------------------------------------------------------------------------------------
A:-----------------------------------------------------------------------------------------------------
E:-----------------------------------------------------------------------------------------------------
e:-7p0--------------------------------
B:-----10p0-8p0-7p10-8p0-7p0-5p0-4p0--
G:------------------------------------ x2
D:------------------------------------
A:------------------------------------
E:------------------------------------
guit 2
e:--------------------------------------
B:--------------------------------------
G:-------------7--7---------------7--7--
D:-----4---5---5--4-------4---5---5--4--
A:-2---2---3----------2---2---3---------
E:-0------------------0-----------------

chorus:

Hammerfall...
guit 1
p.m........ .... .... ........ .... .... ........ .... .... ........ .... ....
e:-----------------------------------------------------------------------------
B:-----------------------------------------------------------------------------
G:-----------------------------7777--------------------------------------------
D:-55555555-8888-5555-55555555------8888-----------------------------7777------
A:---------------------------------------55555555-8888-5555-55555555------8888-
E:-----------------------------------------------------------------------------
........ .... .... ........ .... .... ........ ........ .... .... .... ....
e:-----------------------------------------------------------------------------
B:-----------------------------------------------------------------------------
G:-----------------------------7777-------------------------------------------- x2
D:-55555555-8888-5555-55555555------8888-33333333-33333333-7777-3333-7777-3333-
A:-----------------------------------------------------------------------------
E:-----------------------------------------------------------------------------
guit 2
e:-----------------------------------
B:-----------------------------------
G:--------------------------------3-- x4
D:---------------3--7----7-----7--3--
A:-5----5-----5--3--5----5-5*--5-----
E:-3----3-3*--3----------------------

I think it´s three guitars..
guit 1
ohh...
e:--------------------------------------------------
B:--------------------------------------------------
G:----*---------4--------------------4---------4-*--
D:-9--*-2-4-5-7---5-7-5-4-2--2-4-5-7---5-7-5-7---*--
A:-7------------------------------------------------
E:--------------------------------------------------

p.m . . . . . . . . . . .
e:-------------------------------------------------------------------
B:-------------------------------------------------------------------
G:---------4---------------------------------------------4---------4-
D:-2-4-5-7---5-7-5-4--5-4-2-5-4-2-5-4-2-5-4-0-2--2-4-5-7---5-7-5-7--- x2
A:-------------------------------------------------------------------
E:-------------------------------------------------------------------
e:--------
B:--------
G:--------
D:-5--5--
A:--------
E:--------
guit 2
e:----------------------------------------
B:----------------------------------------
G:----------------------------------------
D:-9---9--5--7--9--12-11---9--5--7-----4--
A:-7---7--3--5--7--10-9----7--3--5--5--2-- x2
E:----------------------------------3-----
e:---------------- ---------------------
B:---------------- ---------------------
G:----2-4---2--0-- x4 ----2-4---2----------
D:-2-------------- -2-----------5-4-2---
A:---------------- ---------------------
E:---------------- ---------------------

starts with drums..
guit 3
e:-------------- -------------------------
B:-------------- -------------------------
G:-------------- -------------------------
D:-2--4-5-4--2-- x4 -2--4-5--4-2-4-----9-9---
A:-------------- ---------------2---7-7---
E:-------------- ---------------0---0-0---
tablature explanation:
* = continue picking
p.m = palm muted
p = pull off
h = hammer on
/ = slide up
= slide down
-*--*-
-*--*- =play two times




Ваше мнение



Капча