Eternal Dark
Hammerfall (Orig.:???)

Riff 1
eb----------------- --------------------------|
Hb----------------- --------------------------|
Gb----------------- 3 times, then ------------------|
Db-2---2---2---5-7- ---2---2---5--7-----------|
Ab-2---2---2---5-7- ---2---2---5--7-----------|
Eb-0-000-000-00---- ---0-000-003--5-----------|
pm .. .. .. pm .. ..

Riff 2
eb----------------- --------------------------|
Hb----------------- --------------------------|
Gb-------------7-9- 3 times, then -----------7--9---|
Db-9---9---9---7-9- ---9---9---7--9-----------|
Ab-9---9---9------- ---9---9---5--7-----------|
Eb-7-777-777-77---- ---7-777-77---------------|
pm .. .. .. pm .. ..

Chorus
Git. I
eb---------------------------------------------------------|
Hb---------------------------------------------------------|
Gb---------------7---------------------------7----9--------|
Db-9------5------7--7-7--------9------5------7--7-9--9-9-9-|
Ab-9--9-9-5--5-5-5--5-7--7-7-7-9--9-9-5--5-5-5--5-7--7-7-7-|
Eb-7--7-7-3--3-3------5--5-5-5-7--7-7-3--3-3---------------|

eb---------------------------------------------------------|
Hb---------------------------------------------------------|
Gb---------------7-----------------------------------------|
Db-9------5------7--7-7--------9------5------4-4-4-4-------|
Ab-9--9-9-5--5-5-5--5-7--7-7-7-9--9-9-5--5-5-4-4-4-4-------|
Eb-7--7-7-3--3-3------5--5-5-5-7--7-7-3--3-0-2-2-2-2-------|

Git. II
eb---------------------------------------------------------|
Hb---------------------------------------------------------|
Gb---------------7---------9br7--------------7----9--------|
Db-9------5------7--7-7--------9------5------7--7-9--9-9-9-|
Ab-9--9-9-5--5-5-5--5-7---------------5--5-5-5--5-7--7-7-7-|
Eb-7--7-7-3--3-3------5---------------3--3-3---------------|

eb---------------------------------------------------------|
Hb---------------------------------------------------------|
Gb---------------7---------9br7----------------------------|
Db-9------5------7--7-7--------9------5------4-4-4-4-------|
Ab-9--9-9-5--5-5-5--5-7---------------5--5-5-4-4-4-4-------|
Eb-7--7-7-3--3-3------5---------------3--3-0-2-2-2-2-------|

The solo is hard to tab, but it?s also better to improvise a new one
on the D#min-scale!




Ваше мнение



Капча