HammerFall - Crimson Thunder
Tuning: Eb
Tabbed by: Xessum
Intro:
Eb|-----------------------------------------------------------------|
Bb|-----------------------------------------------------------------|
Gb|-----------------------------------------------------------------|
Db|-5h7----8---7---5h7----8---7---3h5----6---5--3-5-5h7----8---7----|
Ab|-5-5-55-5-5-5---5-5-55-5-5-5---3-3-33-3-3-3--3-3-5-5-55-5-5-5----|
Eb|-----------------------------------------------------------------|
pm. .. . .. . .. . .. .
Verse: Guitar 1
D5 C5 D5 Very last time
Eb|-----------------------------------------------------------|-----------------
Bb|-----------------------------------------------------------|-----------------
Gb|-----------------------------------------------------------|-------------7777
Db|----------------------------------5-5-5-5------------------|-------------7777
Ab|-5-555-555-555-555-555-555-555-55-3-3-3-3-5-555-555-5-5555-|-5-555-555-5-5555
Eb|-----------------------------------------------------------|-----------------
pm. . ... ... ... ... ... ... ... .. . ... ... . .... . ... ... .
(We are the voices in the dark...)
Guitar 2:
D5 C5 D5 Very last time
Eb|----------------------------|-------------|
Bb|----------------------------|-------88----|
Gb|-5-5553---5-5553---5-5553---|--5-55577----|
Db|-5-5553---5-5553---5-5553---|--5-555------|
Ab|----------------------------|-------------|
Eb|----------------------------|-------------|
Eb|------------------------------------------------------------------|
Bb|------------------------------------------------------------------|
Gb|------------------------------------------------------------------|
Db|-3-------5-------5/7----7--5-7-9--3------5-------------2-----9---|
Ab|-3-------5-------5/7----7--3-5-7--3------5-----2-2-2-2-2-2-2-9---|
Eb|-1-------3-------3/5-55-5---------1------3-----0-0-0-0-0-0-0-7---|
pm. .. . . . . . .
(All your dreams can come true...)
Chorus:
Eb|-------------------------------------------------------------------|
Bb|-------------------------------------------------------------------|
Gb|-4----7---------4----7-4----------------7--------------------------|
Db|-4----7----7----4----7-4----------------7----4----5----7-----------|
Ab|-2----5----7----2----5-2--2-2-4-5-4-2-0-5----4----5----7----1010---|
Eb|-----------5---------------------------------2----3----5----8-8----|
(follow the signs of the crimson thunder...)
Eb|----------------------------------------------------------------|
Bb|----------------------------------------------------------------|
Gb|----------------------------------------------------------------|
Db|--5h7----8---7---5h7----8---7---3h5----6---5--3-5-5h7----8---7--|
Ab|--5-5-55-5-5-5---5-5-55-5-5-5---3-3-33-3-3-3--3-3-5-5-55-5-5-5--|
Eb|----------------------------------------------------------------|
pm. .. . .. . .. . .. .
Break: Guitar 1
D5 C5 D5
Eb|------------------------------------------|
Bb|------------------------------------------|
Gb|--7---------------7--5------7-------------|
Db|--7---------------7--5------7-------------|
Ab|--5---------------5--3------5-------------|
Eb|------------------------------------------|
Guitar 2
D5 C5 D5
Eb|--------------------------------------|
Bb|----------------------------------88--|
Gb|--5-5553---5-5553---5-5553---5-55577--|
Db|--5-5553---5-5553---5-5553---5-555----|
Ab|--------------------------------------|
Eb|--------------------------------------|
Play this riff 8 times before the solo:
Eb|----------------|
Bb|----------------|
Gb|-5h7----8---7---|
Db|-5-5-55-5-5-5---|
Ab|----------------|
Eb|----------------|
pm. .. .
Solo Rhythm: I canґt tab the solo..
Eb|----------------------------------------------------------------------------|
Bb|----------------------------------------------------------------------------|
Gb|----------------------------------------------------------------------------|
Db|--7h9--------10p9--------10p9--------10p9------------7h9--------9h10--------|
Ab|--7-7--------7--7--------7--7--------7--7----2-0-----7-7--------7-7---------|
Eb|--0-0-000-00-0--0-000-00-0--0-000-00-0--0-00-----3-2-0-0-000-00-0-0--000-00-|
pm. ... .. ... .. ... .. .. ... .. ... ..
Continues...
Eb|------------------------------------------------------------------------|
Bb|------------------------------------------------------------------------|
Gb|------------------------------------------------------------------------|
Db|-10p9------------------7h9--------9p7--------9h10-------10p9------------|
Ab|-7--7--------------2-3-7-7--------7-7--------7-7--------7--7----2-0-----|
Eb|-0--0-000-00-0-2-3-----0-0-000-00-0-0-000-00-0-0-000-00-0--0-00-----3-2-|
... .. ... .. ... .. ... .. ..
Continues...
Eb|-----------------------------------------------|
Bb|-----------------------------------------------|
Gb|-----------------------------------------------|
Db|--7h9--------9h10-------10p9-------------------|
Ab|--7-7--------7-7--------7--7--------------2-3--|
Eb|--0-0-000-00-0-0-000-00-0--0-000-00-0-2-3------|
... .. ... .. ... ..
Starts with bass and vocals:
Eb|---------------------------------------|
Bb|---------------------------------------|
Gb|--7--4-----7---------------------------|Then the chorus 2x
Db|--7--4-----7--4------555--7------------|
Ab|--5--2-----5--4--5555555--7---1010-----|
Eb|--------------2--3333333--5---8-8------|
pm. ....
Final riff:
Eb|-------------------------------------------------------------|
Bb|-------------------------------------------------------------|
Gb|--5h7----8---7---5h7----8---7---5h7----8---7---5h7----8---7--|
Db|--5-5-55-5-5-5---5-5-55-5-5-5---5-5-55-5-5-5---5-5-55-5-5-5--|
Ab|----------------------------------------------------------5--|
Eb|-------------------------------------------------------------|
pm. .. . .. . .. . .. .




Ваше мнение



Капча