. - palm mute * - see comment
~ - vibrato x - percussion note
/ - slide up to - slide down to
h - hammer on p - pull off
b - bend b+r - bend and release
" - tremolo note ph - pinch harmonic
sh - semi harmonic
Tune To Eb (Eb,Ab,Db,Gb,Bb,Eb)
Riff A
|----------------------------------------|
|----------------------------------------|
|----------------------------------------|
|--------h--p-----7--------------h-------|Gtr I
|----10-9-10-9---------10-10-10-9-10-----|
|-0------------0-----0-------------------|
| |
|----------------------------------------|
|----------------------------------------|
|----------------------------------------|
|----------------------------------------|Gtr II
|----------------------------------------|
|----------------------------------------|
|----------------------------------------|
|----------------------------------------|
|----------------------------------------|
|--------h--p-----7----------------------|Gtr I
|----10-9-10-9---------9-10--------------|
|-0------------0-----0-------------------|
| |
|----------------------------------------|
|----------------------------------------|
|----------------------------------------|Gtr II
|----------------------------------------|
|----------------------------------------|
|----------------------------------------|

|----------------------------------------|
|----------------------------------------|
|-------------------------------------9--|
|--------h--p-----7--------------h----9--|Gtr I
|----10-9-10-9---------10-10-10-9-10--7--|
|-0------------0-----0-------------------|
| |
|----------------------------------------|
|----------------------------------------|
|-9-----------------------------------9--|
|-9-----------------------------------9--|Gtr II
|-7-----------------------------------7--|
|----------------------------------------|
|----------------------------------------|
|----------------------------------------|
|--/-9----------------------------------|Gtrs I & II
|--/-9----------------------------------|
|--/-7----------------------------------|
|----------------------------------------|
Riff B.1
|----------------------------------------|
|----------------------------------------|
|----------------------------------------|
|--------h--p-----7--------------h-------|Gtrs I & II
|----10-9-10-9---------10-10-10-9-10-----|
|-0------------0-----0-------------------|
|----------------------------------------|
|----------------------------------------|
|----------------------------------------|
|--------h--p-----7----------------------|Gtrs I & II
|----10-9-10-9---------9-10--------------|
|-0------------0-----0-------------------|
|----------------------------------------|
|----------------------------------------|
|----------------------------------------|
|--------h--p-----7--------------h-------|Gtrs I & II
|----10-9-10-9---------10-10-10-9-10-----|
|-0------------0-----0-------------------|
|----------------------------------------|
|----------------------------------------|
|-12----11----12----14----12----11-------|
|-12----11----12----14----12----11-------|Gtrs I & II
|-10-----9----10----12----10-----9-------|
|----------------------------------------|
Riff C.1
|----------------------------------------|
|----------------------------------------|
|--9----(9)----------12----(12)----------|
|--9----(9)----------12----(12)----------|Gtrs I & II
|--7----(7)----------10----(10)----------|
|----------------------------------------|
|----------------------------------------|
|----------------------------------------|
|-7-----(7)---------4-------------------|
|-7-----(7)---------4-------------------|Gtrs I & II
|-5-----(5)---------2-------------------|
|----------------------------------------|
Repeat Riff B.1
Riff C.2
|----------------------------------------|
|----------------------------------------|
|--9----(9)--7-(7)/9---12----(12)--------|
|--9----(9)--7-(7)/9---12----(12)--------|Gtr I
|--7----(7)--5-(5)/7---10----(10)--------|
|----------------------------------------|
| |
|----------------------------------------|
|----------------------------------------|
|--9---9(9)-----------/12----(12)--------|
|--9---9(9)-----------/12----(12)--------|Gtr II
|--7---7(7)-----------/10----(10)--------|
|----------------------------------------|
|----------------------------------------|
|----------------------------------------|
|--7-----(7)---------4-------------------|
|--7-----(7)---------4-------------------|Gtr I
|--5-----(5)---------2-------------------|
|----------------------------------------|
| |
|----------------------------------------|
|----------------------------------------|
|-7-----(7)---------4-------------------|Gtr II
|-7-----(7)---------4-------------------|
|-5-----(5)---------2-------------------|
|----------------------------------------|
Repeat Riff B.1
Riff D
|----------------------------------------|
|----------------------------------------|
|----------------------------------------|
|--9----------10----------7--------------|Gtrs I & II
|--9----------10----------7----10-9-5-4--|
|--7-----------8----------5-----8-7-3-2--|
Riff B.2
|----------------------------------------|
|----------------------------------------|
|----------------------------------------|
|--------h--p-----7--------------h-------|Gtrs I & II
|----10-9-10-9---------10-10-10-9-10-----|
|-0------------0-----0-------------------|
|----------------------------------------|
|----------------------------------------|
|-12----11----12----14----12----11-------|
|-12----11----12----14----12----11-------|Gtrs I & II
|-10-----9----10----12----10-----9-------|
|----------------------------------------|
|----------------------------------------|
|----------------------------------------|
|--------h-p---------------------h-------|
|-----9-7-9-7----10-----9--9--9-7-9------|Gtr I
|----------------------------------------|
|-0------------0-----0-------------------|
| |
|----------------------------------------|
|----------------------------------------|
|----------------------------------------|
|--------h--p-----7--------------h-------|Gtr II
|----10-9-10-9---------10-10-10-9-10-----|
|-0------------0-----0-------------------|
|----------------------------------------|
|----------------------------------------|
|-12----11----12----14----12----11-------|
|-12----11----12----14----12----11-------|Gtrs I & II
|-10-----9----10----12----10-----9-------|
|----------------------------------------|
Riff B.3
|----------------------------------------|
|----------------------------------------|
|--------h-p---------------------h-------|
|-----9-7-9-7----10-----9--9--9-7-9------|Gtr I
|----------------------------------------|
|-0------------0-----0-------------------|
| |
|----------------------------------------|
|----------------------------------------|
|----------------------------------------|
|--------h--p-----7--------------h-------|Gtr II
|----10-9-10-9---------10-10-10-9-10-----|
|-0------------0-----0-------------------|

|----------------------------------------|
|----------------------------------------|
|--------h-p-----------------------------|
|-----9-7-9-7---10-----7-9---------------|Gtr I
|----------------------------------------|
|-0-----------0-----0--------------------|
| |
|----------------------------------------|
|----------------------7--8--------------|
|----------------------------------------|
|--------h--p-----7----------------------|Gtr II
|----10-9-10-9---------------------------|
|-0------------0-----0-------------------|
|----------------------------------------|
|----------------------------------------|
|----------------------------------------|
|--------h--p-----7--------------h-------|Gtrs I & II
|----10-9-10-9---------10-10-10-9-10-----|
|-0------------0-----0-------------------|
|----------------------------------------|
|----------------------------------------|
|-12----11----12----14----12----11-------|
|-12----11----12----14----12----11-------|Gtrs I & II
|-10-----9----10----12----10-----9-------|
|----------------------------------------|
Repeat Riff C.1
Repeat Riff B.1
Riff C.3
|----------------------------------------|
|----------------------------------------|
|--9----(9)--7-(7)/9---12----(12)--------|
|--9----(9)--7-(7)/9---12----(12)--------|Gtr I
|--7----(7)--5-(5)/7---10----(10)--------|
|----------------------------------------|
| |
|----------------------------------------|
|----------------------------------------|
|--9----(9)-----------/12----(12)--------|
|--9----(9)-----------/12----(12)--------|Gtr II
|--7----(7)-----------/10----(10)--------|
|----------------------------------------|
|----------------------------------------|
|----------------------------------------|
|--7-----(7)---------4-------------------|
|--7-----(7)---------4-------------------|Gtr I
|--5-----(5)---------2-------------------|
|----------------------------------------|
| |
|----------------------------------------|
|----------------------------------------|
|-7-----(7)---------4-------------------|Gtr II
|-7-----(7)---------4-------------------|
|-5-----(5)---------2-------------------|
|----------------------------------------|
Riff B.4
|----------------------------------------|
|----------------------------------------|
|----------------------------------------|
|--------h--p-----7--------------h-------|Gtrs I & II
|----10-9-10-9---------10-10-10-9-10-----|
|-0------------0-----0-------------------|
|----------------------------------------|
|----------------------------------------|
|----------------------------------------|
|--------h--p-----7----------------------|Gtrs I & II
|----10-9-10-9---------9-10--------------|
|-0------------0-----0-------------------|
|----------------------------------------|
|----------------------------------------|
|--------h-p---------------------h-------|
|-----9-7-9-7----10-----9--9--9-7-9------|Gtr I
|----------------------------------------|
|-0------------0-----0-------------------|
| |
|----------------------------------------|
|----------------------------------------|
|----------------------------------------|
|--------h--p-----7--------------h-------|Gtr II
|----10-9-10-9---------10-10-10-9-10-----|
|-0------------0-----0-------------------|
|----------------------------------------|
|----------------------------------------|
|-12----11----12----14----12----11-------|
|-12----11----12----14----12----11-------|Gtrs I & II
|-10-----9----10----12----10-----9-------|
|----------------------------------------|
Repeat Riff D
Repeat Riff B.2
Riff E
|------------------------------------------------|
|------------------------------------------------|
|------------------------------------------------|
|-------------------------------------2------2---|Gtr I
|-------------------------------------2------2---|
|-0-0-0-0--0-0-0-0--0-0-0-0--0-0-0-0--0------0---|
| |
|------------------------------------------------|
|------------------------------------------------|
|------------------------------------------------|
|-------------------------------------2-----(2)--|Gtr II
|-------------------------------------2-----(2)--|
|-0-0-0-0--0-0-0-0--0-0-0-0--0-0-0-0--0-----(0)--|

Riff F (Rhythm Under Solo)**(Play A Total Of 4 Times)
|-------------------------------------|
|-------------------------------------|
|-------------------------------------|Gtr I
|-------------------------------------|
|-------------------------------------|
|-2-2-2-2--2-2-2-2--2-2-2-2--3-3-3-3--|
|-------------------------------------|
|-------------------------------------|
|-------------------------------------|Gtr I
|-------------------------------------|
|-------------------------------------|
|-0-0-0-0--0-0-0-0--5-5-5-5--3-3-3-3--|
Riff G
|---------------------------------------------------------|
|---------------------------------------------------------|
|---------------------------------------------------------|Gtr I
|---5--4-----22-4----/x-5--4---(4)--/7--2--4---(4)-//--|
|---5--4-----22-4----/x-5--4---(4)-------2--4---(4)-//--|
|---3--2-----00-2----/x-3--2---(2)-------0--2---(2)-//--|
| |
|---------------------------------------------------------|
|---------------------------------------------------------|
|--12-11-----9-11------12-11--(11)-------9-11--(11)-------|Gtr II
|--12-11-----9-11------12-11--(11)-------9-11--(11)-------|
|--10--9-----7--9------10--9---(9)-------7--9---(9)-------|
|---------------------------------------------------------|

|-------------------------------------------7----7---/8-7----|
|---------------------------------------------10----------10-|
|-----------------------------12-11-9-11---------------------|Gtr I
|--5--4--2--4----5--4--2--4---12-11-9-11---------------------|
|--5--4--2--4----5--4--2--4---10--9-7-9----------------------|
|--3--2--0--2----3--2--0--2----------------------------------|
| |
|---------------------------------------------------h--------|
|-------------------------------------------8--7-8-8-10-8--7-|
|-12-11--9-11---12-11--9-11---12-11-9-11---------------------|Gtr II
|-12-11--9-11---12-11--9-11---12-11-9-11---------------------|
|-10--9--7--9---10--9--7--9---10--9-7--9---------------------|
|------------------------------------------------------------|
Repeat Riff B.1
Repeat Riff C.1
Riff B.5
|----------------------------------------|
|----------------------------------------|
|----------------------------------------|Gtrs I & II
|--------h--p-----7--------------h-------|
|----10-9-10-9---------10-10-10-9-10-----|
|-0------------0-----0-------------------|
|-------------------------7--------------|
|---------------------10-----------------|
|----------------------------------------|Gtr I
|--------h--p-----7----------------------|
|----10-9-10-9---------------------------|
|-0------------0-----0-------------------|
| |
|----------------------------------------|
|----------------------7--8--------------|
|----------------------------------------|Gtr II
|--------h--p-----7----------------------|
|----10-9-10-9---------------------------|
|-0------------0-----0-------------------|
|----------------------------------------|
|----------------------------------------|
|----------------------------------------|Gtrs I & II
|--------h--p-----7--------------h-------|
|----10-9-10-9---------10-10-10-9-10-----|
|-0------------0-----0-------------------|
|----------------------------------------|
|----------------------------------------|
|-12----11----12----14----12----11-------|Gtrs I & II
|-12----11----12----14----12----11-------|
|-10-----9----10----12----10-----9-------|
|----------------------------------------|
Riff C.4
|----------------------------------------|
|----------------------------------------|
|--9----(9)--7-(7)/9----9----------------|Gtr I
|--9----(9)--7-(7)/9----9----------------|
|--7----(7)--5-(5)/7----7----------------|
|----------------------------------------|
| |
|----------------------------------------|
|----------------------------------------|
|--9----(9)-------------9----------------|Gtr II
|--9----(9)-------------9----------------|
|--7----(7)-------------7----------------|
|----------------------------------------|

|----------------------------------------|
|----------------------------------------|
|----------------------------------------|Gtr I
|----------------------------------------|
|-10-10-10-10--10-10-10-10--10-10-10-10--| II???
|----------------------------------------|
|----------------------------------------|
|----------------------------------------|
|--7-----(7)---------4-------------------|Gtrs I & II
|--7-----(7)---------4-------------------|
|--5-----(5)---------2-------------------|
|----------------------------------------|
Repeat Riff B.4
Riff H
|----------------------------------------------------------------------|
|----------------------------------------------------------------------|Gtrs
|----------------------------------------------------------------------|I&
|----------------------------------------------------------------5---4-| II
|-2-2-2-2--2-2-2-2--2-2-2-2--2-2-2-2--3-3-3-3--3-3-3-3--3-3-3-3--3---2-|
|----------------------------------------------------------------------|
|-----------------------------------------------------|
|-----------------------------------------------------|
|-----------------------------------------------------|Gtr I
|-2---------------------------------------------------|
|-0-0-0-0--0-0-0-0--0-0-0-0--0-0-0-0--10---9---5---4--|
|--------------------------------------8---7---3---2--|
| |
|-----------------------------------------------------|
|-----------------------------------------------------|
|-----------------------------------------------------|Gtr II
|-----------------------------------------------------|
|-0-0-0-0--0-0-0-0--0-0-0-0--0-0-0-0---*---*---*---*--|
|--------------------------------------8---7---3---2--|
* = harmonics
Riff B.6
|----------------------------------------|
|----------------------------------------|
|----------------------------------------|Gtrs I & II
|--------h--p-----7--------------h-------|
|----10-9-10-9---------10-10-10-9-10-----|
|-0------------0-----0-------------------|
|----------------------------------------|
|----------------------------------------|
|-12----11----12----14----12----11-------|Gtrs I & II
|-12----11----12----14----12----11-------|
|-10-----9----10----12----10-----9-------|
|----------------------------------------|
|----------------------------------------|
|----------------------------------------|
|--------h-p---------------------h-------|
|-----9-7-9-7----10-----9--9--9-7-9------|Gtr I
|----------------------------------------|
|-0------------0-----0-------------------|
| |
|----------------------------------------|
|----------------------------------------|
|----------------------------------------|Gtr II
|--------h--p-----7--------------h-------|
|----10-9-10-9---------10-10-10-9-10-----|
|-0------------0-----0-------------------|
|----------------------------------------|
|--8-----7-----8---/10-----8-----7-------|
|----------------------------------------|Gtrs I& II
|----------------------------------------|
|----------------------------------------|
|----------------------------------------|
h
|--7-----------7---7-8-----7-------------|
|-------10----------------------10-------|
|----------------------------------------|Gtr I
|----------------------------------------|
|----------------------------------------|
|----------------------------------------|
| |
|----------------------------------------|
|--8-----7-----8---/10-----8-----7-------|
|----------------------------------------|Gtr II
|----------------------------------------|
|----------------------------------------|
|----------------------------------------|
h
|-19----------19--19-20---19-------------|
|-------22----------------------22-------|
|----------------------------------------|Gtr I
|----------------------------------------|
|----------------------------------------|
|----------------------------------------|
| |
|----------------------------------------|
|--8-----7-----8---/10-----8-----7-------|
|----------------------------------------|Gtr II
|----------------------------------------|
|----------------------------------------|
|----------------------------------------|
Riff J
|----------------------------------------|
|----------------------------------------|
|--9------5-----4------------------------|Gtrs I & II
|--9------5-----4-----5-----4-----(4)----|
|--7------3-----2-----5-----4-----(4)----|
|---------------------3-----2-----(2)----|
|----------------------------------------|
|----------------------------------------|
|----0-------(0)-------------------------|Gtrs I & II
|---2--------(2)-------------------------|
|--2---------(2)-------------------------|
|-0----------(0)-------------------------|




Ваше мнение



Капча