Band: H-blockx
Song: The Power
Tabbed by : elliot smith ([email protected])

Ok this i cant find this tab anywhere on the net so i sat down and figured it out
i think the chorus is a little off but for a 1st atempt it aint that bad!

Tuning: Drop Db if this dunt sound rite the try just drop D

Intro
eb:------------------------------------------------
bb:------------------------------------------------
gb:------------------------------------------------
db:--xx-0-x-x-xx-5-x-x-xx-0-x-x-xx-5-x-------------
ab:--xx-0-x-x-xx-5-x-x-xx-0-x-x-xx-5-x-------------
db:--xx-0-x-x-xx-5-x-x-xx-0-x-x-xx-5-x-------------
pm .. . . .. . . .. . . .. .

eb:------------------------
bb:--------------------5^--





Ваше мнение



Капча