H-Blockx - Ring Of Fire
Submitted By: guitarfreak
A cool Coverversion of this Johnny Cash classic.
Standard Tuning
Intro/Fill
e--------------------------|
B--------------------------|
G--------------------------|
D--------------------------|
A--------------------------|
E-0--1---3-3-----0-1-3-3---|
Main Riff
e--------------------------------------------------------------|
B--------------------------------------------------------------|
G--7--7-7--7---7--9-5-7---------------4--4-4--4---4--5-2-4-----|
D--x--x-x--x---x--x-x-x---------------x--x-x--x---x--x-x-x-5---|
A--5--5-5--5---5--7-3-5---------------2--2-2--2---2--3-0-2-x---|
E----------------------------------------------------------3---|
Chorus
e-----------------|
B-----------------|
G--7-------5------|
D--7-------5--5---|
A--5-------3--5---|
E-------------3---|





Ваше мнение



Капча