Date: Thu, 4 Dec 1997 14:00:05 -0700 (MST)
From: "Darren A. Berg"
Subject: TAB: 'Time For Death' by GWAR

Time For Death
From GWAR's 'Hell-O' album.
Darren A. Berg -*dAb*- [email protected]
This isn't 100% correct, but it's the basic rhythm part. If anyone
fingers out the lead part, or finds any mistakes, let me know.

(7) - let ring / - slide up

Intro (after wind effects)
[-------------------------------------------------------------]
[-------------------------------------------------------------]
[-------------------------------------------------------------]
[---------------------------(7)--------------------------(7)--]
[--5-5-7-7--5-5-7-10--5-5-7-(5)--5/7-5/7-5/7-5/7-5/7-5/7-(5)--]
[--3-3-5-5--3-3-5--8--3-3-5------3/5-3/5-3/5-3/5-3/5-3/5------]

Riff 1a Riff 1b
[------------------------------] [---------------------------------]
[------------------------------] [---------------------------------]
[------------------------------] [---------------------------------]
[-------------------------(7)--] [------------------------------7--]
[--5-5-7--5-5-7-10--5-5-7-(5)--] [--99999-7--999-10--99999-7-6--5--]
[--3-3-5--3-3-5--8--3-3-5------] [--77777-5--777--8--77777-5-4-----]

Riff 2 Here's how I think it goes:
[------------------] Intro
[------------------] Verse (Riff 1a x4)
[------------------] Prechorus (Riff 1b x2)
[--5--6--7--10--9--] Chorus (Riff 2 x4)
[--3--4--5---8--7--] Verse
[------------------] Prechorus
Chorus
Outro Solo (Riff 2 x4)
[-----------------] Verse
[-----------------] Prechorus
[-----------------] Chorus
[-----------------] Outro
[--7--9--5--7--2--]
[--5--7--3--5--0--]
D..E..A..T..H!




Ваше мнение



Капча