Artist:Gwar
Title:The performer
Album:we kill everything
normal tuning
Riff 1
e|----------------------------------|
b|----------------------------------|
g|---2-2----------------------------|
d|-------3-3-2h3-2-2h3-2h3-2h3-2h3--|
a|-0--------------------------------|
E|----------------------------------|
Riff 2
e|------------------------------------------------------------------|
b|------------------------------------------------------------------|
g|-9-9-9-9--9--7--6--------------------9-9-9-9--9--7--6--7-6-7-9-7--|
d|-9-9-9-9--9--7--6--7-7-7-7--7--5--4--9-9-9-9--9--7--6--7-6-7-9-7--|
a|-7-7-7-7--7--5--4--7-7-7-7--7--5--4--7-7-7-7--7--5--4--5-4-5-7-5--|
E|-------------------5-5-5-5--5--3--2-------------------------------|
break
e|----------------|
b|----------------|
g|----------------|
d|-7--77--77--77--|
a|-7--77--77--77--|
E|-5--55--55--55--|
Riff 3
e|--------------------------------------------------------------------|
b|--------------------------------------------------------------------|
g|--------------------------------------------------------------------|
d|-9/11-11-11-11-11--9/11-11-11-11-11--------------9/11--11-10--------|
a|-9/11-11-11-11-11--9/11-11-11-11-11--------9/11--------------11-10--|
E|-7/9--9--9--9--9---7/9--9--9--9--9---9/11---------------------------|
well thats it
thanx
jeremy
====




Ваше мнение



Капча