#----------------------------------PLEASE NOTE---------------------------------#
#This file is the author's own work and represents their interpretation of the #
#song. You may only use this file for private study, scholarship, or research. #
#------------------------------------------------------------------------------##
GWAR - Slap U Around (taken from the fantastic album 'This toilet earth')
====================
Tune down your guitar a half step to Eb
Main Riff:
|---------------------|
|---------------------|
|-2---4-4-------------|
|-0-0-0-0---2---4-4---|
|---------3-0-0-0-0-3-|
|---------------------|
verse:
2 x Main Riff
|------------------| (2 times)
|------------------|
|------------------|
|-5----------------|
|-3-2-2--5-7---5-7-|
|-----0--3-5---3-5-|
refrain:
|-----------------------------------------------------------|
|-----------------------------------------------------------|
|-----------------------------------------------------------|
|-5-5-5-------5-5-5---7-7-9---7-7-9---5-5-5-----------------|
|-3-3-3-2-2---3-3-3---5-5-5---5-5-5---3-3-3-2-2---5-7---5-7-|
|---------0-----------------------------------0---3-5---3-5-|
Guitarsolo: (like verse)
verse:
refrain:
--------------------------------------------------------------------------
Transcribed 3|7|94 by Michael Bauer ([email protected])
Check out my WWW Page for our coming GWAR Page (it's online soon)
http://hp09.zdv.uni-tuebingen.de:4711/
GWAR - Slap U Around (solo)
Tune down yer guitar to an Eb
1.Solo:
-----5------------------------------------------5-------------------------
------------------------------3B4-3-1---------------------------------3---
-4B5---5RB4-2--2-4B5--2-4B5------------4B5--4B5---5RB4-2--2-4B5-2-4B5-----
--------------------------------------------------------------------------
--------------------------------------------------------------------------
--------------------------------------------------------------------------
--------------------------------------------------------------------------
-5---5---5---5---5---5---5---5---------------5---5---5--------------------
-7B9-7B9-7B9-7B9-7B9-7B9-7B9-7B9RB9PO5---5---7B9-7B9-7B9RB9PO5------------
---------------------------------------7-----------------------7-7--------
--------------------------------------------------------------------------
--------------------------------------------------------------------------
-----------------------------------17-20-20B22RB20-17----17---------------
--------------------17-20-17-17-20--------------------20----20------------
---5---5-7--Sl19B21-------------------------------------------------------
-7---7--------------------------------------------------------------------
--------------------------------------------------------------------------
--------------------------------------------------------------------------
-----------------------------------------
-17-20-20B22-20B22-20B22RB20-17-20-20B22-
-----------------------------------------
-----------------------------------------
-----------------------------------------
-----------------------------------------
Solo 2:
-------17-------------------------------------------------------17----------
-------------------------------------15B17RB15PO13--------------------------
-16B17----17RB16--14-16B17--14-16B17----------------16B17-16B17----17RB16-14
----------------------------------------------------------------------------
----------------------------------------------------------------------------
----------------------------------------------------------------------------
-----------------------15B17-15B17-15B17RB15PO12----12--12----12----------
-------------------15----------------------------15--------15-------------
-14-16B17-14-16B17--------------------------------------------------------
--------------------------------------------------------------------------
--------------------------------------------------------------------------
--------------------------------------------------------------------------
-15B17RB15-12-15B17---22B24RB22-20-22B24-
-----------------------------------------
-----------------------------------------
-----------------------------------------
-----------------------------------------
-----------------------------------------
--------------------------------------------------------------------------
Transcribed 4-7-94 by Michael Bauer ([email protected])
[email protected] (134.2.62.161 4242),Gutgolf@#amigager,GWARgolf@#gwar
Watch out for my homepage to get a link to our new WWW GWAR Page
http://hp09.zdv.uni-tuebingen.de:4711/




Ваше мнение



Капча