Nitro Burning Funny Bong
We Kill Everything
Tabbed by Noel Stanko - [email protected]
Well can these ScummDogs do no wrong? Man these new tunes are catchy...
The boys tune down to E-Flat.....
This is also being tabbed from the mp3 with an acoustic guitar at school
so go easy on me....the lead will be done when the cd hits.
Intro 2 Parts Here
Hold the bend an play the 12's that sound like 13's
---13-12-12b13 12-12-12-12-12-12--13-12-12b13-12-12-12-12-12-|
|-------------------------------------------------------------|
|-------------------------------------------------------------|
|---------5-7-------5-7---------------------------------------|
|---3-333-3-5-3-333-3-5--Keep play this-----------------------|
---1-111-----1-111-------------------------------------------|
00:19 Rythym kicks in...Not sure on the exact note count for the mutes
you just gotta play along to get it.
-------------------------------------------------------------------|
|-------------------------------------------------------------------|
|-------------------------------------------------------------------|
|----------5-7-7777-------------------------------5-7-7777----------|
|---3-3333-3-5-5555-7-8-8888-7-5-555-5-7-5-3-3333-3-5-5555-7-8-8888-|
---1-1111----------5-6-6688-5-3-333-3-5-3-1-1111----------5-6-6666-|
mute mute mute mute mute mute mute
--------------------|
--------------------|
--------------------| This is the main Riff in the Song
-------------------|
----7-7-9-7---------|
--7-5-5-7-5-9-7-3---|
--5---------7-5-1---|
Whoa..can you take it...
----------------------------------------|
|----------------------------------------|
|----------------------------------------|Play this a Bunch
|------------------55--------------------| Then when you get high with the boys..
|---888888888--77--33--| play lots of 5-|
---666666666--55------------------------| 3's
Chorus...Try One of These 2
-----------------------------------------|
|-----------------------------------------|
|------5----5--It's this-----5------5-----|
|------3-77-3-- or -----3-5-77-3-----|
|---33---55---- This --33---3-55-------|
---11--------------------11--------------|
Outro
---------------------------------|
|---------------------------------|
|---------------------------------|
|---------------7--9-7------------|
|---8888888888--5--7-5-9-7-3-3----|
---6666666666---------7-5-1-1----|
I still have to tab the part after the middle riff and the lead. It will
be up soon.




Ваше мнение



Капча