#----------------------------------PLEASE NOTE---------------------------------#
#This file is the author's own work and represents their interpretation of the #
#song. You may only use this file for private study, scholarship, or research. #
#------------------------------------------------------------------------------##
GWAR - The morality squad
=========================
(Tune down your guitar to E-flat)
|------> |---------------------------------|
||------------------------------------||----------------------------------|
||------------------------------------||----------------------------------|
||------------2-2---------------------||----------------------------------|
||-2------2H4-0-0---2------2H4----5-4-||---5-7-----3-2-^^^^^^^^^^^^^^^^^--|
||-0--3H4-----------0--3H4------5-3-2-||-5-3-5-5-3-1-0-^^^^^^^^^^^^^^^^^--|
||------------------------------3-----||-3-----3-1------------------------|
Intro ---- unless I think they're wrong
||-----------------------||-----------------------------|
||-----------------------||-----------------------------| (Play this whole
||-----------------------||-----------------------------| stuff 2 times)
||---5-4-2-^^^^^^^^^^^^^-||-5-6-7-----------7-8-9-------|
||-5-3-2-0-^^^^^^^^^^^^^-||-3-4-5---5-6-7---5-6-7-------|
||-3---------------------||---------3-4-5---------------|
Blasphemy -> Teen suicide
(solo section)
|------17----------17----------17-------19B20-19B20-------------------|(Attention: This
|------20B22-------20B22-------20B22-----------------|part contains 2-|
|---------------------------------------------------------------------|guitarparts in
|---------------------------------------7-----------------------------|on !!!)
|-7-7---------7-7---------7-7-----------5-----5-----------------------|(Played 2 times)
|-5-5---------5-5---------5-5-----------------3-----------------------|
(only bass and solo guitar for about 16 measures)
|-------------------|
|-------------------|
|-------------------|(Play something like this for the rest
|-----7---5---7-----| of the song)
|-7---5---3---5---5-|
|-5---------------3-|
Thats about all.
any questions or comments...
[email protected]


Ваше мнение



Капча