-------------------------------------------------------------------------------
HATE LOVE SONGS - GWAR
-------------------------------------------------------------------------------

CD: Carnival of Chaos
Tabbed by: RUSTDOGG666
Email: [email protected]

Tuning: Standard

( E A D G B e )

Intro:

e|----------------------------------------------------|
B|----------------------------------------------------|
G|-----8-7-6-7-6-----8-7-6-7-6-----8-7-6-7-6-----8-6--|
D|--4--8-7-6-7-6--4--8-7-6-7-6--4--8-7-6-7-6--4--8-6--|
A|--4--6-5-4-5-4--4--6-5-4-5-4--4--6-5-4-5-4--4--6-4--|
E|--2-------------2-------------2-------------2-------|

Verse 1:

e|------------------------------|
B|------------------------------|
G|-----6--4--3--4-3-4-3-4-3-----|
D|--4--6--4--3--2-3-4-3-4-3--4--|
A|--4--4--2--1--2-1-2-1-2-1--4--|
E|--2------------------------2--|

After the above part they do about 7 pickslides on the guitar.
Hold the 2nd fret on the E string down while doing this, it sounds better.

e|----------------------------------------------------|
B|----------------------------------------------------|
G|-----6--4--3--4-3-4-3-4-3-----6--4--3--4-3-4-3-4-3--|
D|--4--6--4--3--2-3-4-3-4-3--4--6--4--3--4-3-4-3-4-3--|
A|--4--4--2--1--2-1-2-1-2-1--4--4--2--1--2-1-2-1-2-1--|
E|--2------------------------2------------------------|

e|----------------------------------------------------|
B|----------------------------------------------------|
G|-----8-7-6-7-6-----8-7-6-7-6-----8-7-6-7-6-----8-6--|
D|--4--8-7-6-7-6--4--8-7-6-7-6--4--8-7-6-7-6--4--8-6--|
A|--4--6-5-4-5-4--4--6-5-4-5-4--4--6-5-4-5-4--4--6-4--|
E|--2-------------2-------------2-------------2-------|

e|----------------------------------------------------|
B|----------------------------------------------------|
G|-----6--4--3--4-3-4-3-4-3-----6--4--3--4-3-4-3-4-3--|
D|--4--6--4--3--2-3-4-3-4-3--4--6--4--3--4-3-4-3-4-3--|
A|--4--4--2--1--2-1-2-1-2-1--4--4--2--1--2-1-2-1-2-1--|
E|--2------------------------2------------------------|

Chorus:

e|-----------------------------------------------------------------|
B|-----------------------------------------------------------------|
G|--8--6--9--4--8--6--4----8--6--9--4--8--6--4----11-10-9----------|
D|--8--6--9--4--8--6--4----8--6--9--4--8--6--4------------11-10-8--|
A|--6--4--7--2--6--4--2----6--4--7--2--6--4--2---------------------|
E|-----------------------------------------------------------------|

Verse 2:

e|----------------------------------------------------|
B|----------------------------------------------------|
G|-----6--4--3--4-3-4-3-4-3-----6--4--3--4-3-4-3-4-3--|
D|--4--6--4--3--2-3-4-3-4-3--4--6--4--3--4-3-4-3-4-3--|
A|--4--4--2--1--2-1-2-1-2-1--4--4--2--1--2-1-2-1-2-1--|
E|--2------------------------2------------------------|
p.m.. . . . . . . . . . . . . . . . . . . .

e|----------------------------------------------------|
B|----------------------------------------------------|
G|-----6--4--3--4-3-4-3-4-3-----6--4--3--4-3-4-3-4-3--|
D|--4--6--4--3--2-3-4-3-4-3--4--6--4--3--4-3-4-3-4-3--|
A|--4--4--2--1--2-1-2-1-2-1--4--4--2--1--2-1-2-1-2-1--|
E|--2------------------------2------------------------|

Chorus:

e|----------------------------------------------|
B|----------------------------------------------|
G|--8--6--9--4--8--6--4----8--6--9--4--8--6--4--|
D|--8--6--9--4--8--6--4----8--6--9--4--8--6--4--|
A|--6--4--7--2--6--4--2----6--4--7--2--6--4--2--|
E|----------------------------------------------|

Ending:

e|-------------------------------------------------------|
B|-------------------------------------------------------|
G|-----8-7-6-7-6-----8-7-6-7-6-----8-7-6-7-6-----8-6-----|
D|--4--8-7-6-7-6--4--8-7-6-7-6--4--8-7-6-7-6--4--8-6--4--|
A|--4--6-5-4-5-4--4--6-5-4-5-4--4--6-5-4-5-4--4--6-4--4--|
E|--2-------------2-------------2-------------2-------2--|

Do the pickslide thing again

e|----------------------------|
B|----------------------------|
G|-----4--3--4--3--4--3-------|
D|--4--4--3--4--3--4--3--4----|
A|--4--2--1--2--1--2--1--4----|
E|--2--------------------2----|

| / slide up
| slide down
| h hammer-on
| p pull-off
| ~ vibrato
| + harmonic
| x Mute note

===============================================================================

This is most of the song.
Didn't bother figuring out the solo.




Ваше мнение



Капча