HAVE YOU SEEN ME?
WRITTEN BY GWAR
OFF THE ALBUM , AMERICA MUST BE DESTROIED , OR THE ROAD BEHIND
TABBED BY ERROL PELCHAT
>
Form starters this is the first time I have tabbed a
entire song. Form the bluesy part I'am not sure the chord
is correct but it's the nearest chord I could find and I
think I got about 80% of the solo correct. If you see
something that needs correcting please E-Mail me at
[email protected]
INTRO (CLEAN )
E:|-9-9---6---9--9-12-12-11-9-11-
B:|-9-9---6---9--9-12-12-11-9-11-
G:|-9-9---6---9--9-12-12-11-9-11-
D:|-8-8---5---8--8-11-11-10-8-10-
A:|------------------------------
E:|------------------------------
E:-9---6---9---9-12-12-11-9-11-
B:-9---6---9---9-12-12-11-9-11-
G:-9---6---9---9-12-12-11-9-11-
D:-8---5---8---8-11-11-10-8-10-
A:-----------------------------
E:-----------------------------
E:-9---6---9--9-12-12-11-9-11-
B:-9---6---9--9-12-12-11-9-11-
G:-9---6---9--9-12-12-11-9-11-
D:-8---5---8--8-11-11-10-8-10-
A:----------------------------
E:----------------------------
E:-6--6--6--6---12-12-11-9-11-|
B:-6--6--6--6---12-12-11-9-11-|
G:-6--6--6--6---12-12-11-9-11-|
D:-5--5--5--5---11-11-10-8-10-|
A:----------------------------|
E:----------------------------|
1ST VERSE
FIGURE 1 MOMMIES............
E:|-9---6---12--12--6-6-6--9---6---12--12--6-6-6-
B:|-9---6---12--12--6-6-6--9---6---12--12--6-6-6-
G:|-9---6---12--12--6-6-6--9---6---12--12--6-6-6-
D:|-8---5---11--11--5-5-5--8---5---11--11--5-5-5-
A:|----------------------------------------------
E:|----------------------------------------------
E:-9---6---12--12--6-6-6--9--9--9---9--9---6-6-6-|
B:-9---6---12--12--6-6-6--9--9--9---9--9---6-6-6-|
G:-9---6---12--12--6-6-6--9--9--9---9--9---6-6-6-|
D:-8---5---11--11--5-5-5--8--8--8---8--8---5-5-6-|
A:-----------------------------------------------|
E:-----------------------------------------------|
(FIGURE 1)
(FIGUER 1)
CHOURUS
FIGURE 2
(HEAVY DISTORION )
HAVE YOU SEEN ME?.........................
E:-----------------------------------------------------------|
B:-----------------------------------------------------------|
G:--2-4-5~----2-4-5~--4----2-4-5-4~---2-4-5-4~-2~---2-5-6~---|
D:--2-4-5~----2-4-5~--4----2-4-5-4~---2-4-5-4~-2~---2-5-6~---|
A:--0-2-3~----0-2-3~--2----0-2-3-2~---0-2-3-2~-0~---0-3-4~---|
E:-----------------------------------------------------------|
2ND VERSE
(FIGURE 1)
FIGURE 3 SUCKLE..............
E:-9---6---9--9--6-6-6---9---6---9--9--6-6-6-
B:-9---6---9--9--6-6-6---9---6---9--9--6-6-6-
G:-9---6---9--9--6-6-6---9---6---9--9--6-6-6-
D:-8---5---8--8--5-5-5---8---5---8--8--5-5-5-
A:-------------------------------------------
E:-------------------------------------------
E:-9---6---9--9--6-6-6---9--9--6---9--9--6-6-6-|
B:-9---6---9--9--6-6-6---9--9--6---9--9--6-6-6-|
G:-9---6---9--9--6-6-6---9--9--6---9--9--6-6-6-|
D:-8---5---8--8--5-5-5---8--8--5---8--8--5-5-5-|
A:---------------------------------------------|
E:---------------------------------------------|
(FIGURE 3)
(FIGURE 2)
SOLO
E:-------------------------------------------------
B:-------------------------------------------------
G:-------------------------------------------------
D:---4--3------------------------------------------
A:---2--1--2--1--2--1--2--1-3--2-------------------
E:--------------------------1--0--1--0--4--3--5--4-
E:-------------------------------------------------
B:-------------------------------------------------
G:-------------------------------------------------
D:---4--3------------------------------------------
A:---2--1--2--1--2--1--2--1------------------------
E:--------------------------4--3--1--2--1--0--1--0-
E:-------------------------------------------------
B:-------------------------------------------------
G:-------------------------------------------------
D:---4--3------------------------------------------
A:---2--1--2--1--2--1--2--1-3--2-------------------
E:--------------------------1--0--1--0--4--3--5--4-
E:-------------------------------------------------
B:-------------------------------------------------
G:-------------------------------------------------
D:---4--3------------------------------------------
A:---2--1--2--1--2--1--2--1------------------------
E:--------------------------4--3--1--2--1--0--1--0-
PLAY TWICE IT'S JUST A DEAD..........
E:-------------------------------------------------------
B:-------------------------------------------------------
G:-------------------------------------------------------
D:-------------------------------------------------------
A:6---------5~--6---------9~--6---------5~--6---------9~-
E:4-4-4-4-4-3~--4-4-4-4-4-7~--4-4-4-4-4-3~--4-4-4-4-4-7~-
PLAY TWICE
E:---------------------------------------
B:---------------------------------------
G:---------------------------------------
D:---------------------------------------
A:13-------------12~--13-------------16~-
E:11-11-11-11-11-10~--11-11-11-11-11-14~-
PLAY SOLO FROM START AGAIN THEN MOVE ON
PLAY 4 TIMES P.M.____|
E:---------------------------
B:---------------------------
G:---------------------------
D:----6----6----6---------H\- /____ short pick slide
A:--3-4--3-4--3-4---------H\- \ or muffled strings
E:----------------7-6-5-4---- listen to the song
HAVE YOU SEEN ME?.........................
E:-------------------------------------------------------------
B:-------------------------------------------------------------
G:-2-4-5~-4--2-4-5-4~--2-4-5-4-2-4-5~-4--2-4-5-4~--2-4-5-4~-2~-
D:-2-4-5~-4--2-4-5-4~--2-4-5-4-2-4-5~-4--2-4-5-4~--2-4-5-4~-2~-
A:-0-2-3~-2--0-2-3-2~--0-2-3-2-0-2-5~-2--0-2-3-2~--0-2-3-2~-0~-
E:-------------------------------------------------------------
E:-------------------------------------------------------------
B:-------------------------------------------------------------
G:-2-4-5~-4--2-4-5-4~--2-4-5-4-2-4-5~-4--2-4-5-4~--2-4-5-4~-2~-
D:-2-4-5~-4--2-4-5-4~--2-4-5-4-2-4-5~-4--2-4-5-4~--2-4-5-4~-2~-
A:-0-2-3~-2--0-2-3-2~--0-2-3-2-0-2-5~-2--0-2-3-2~--0-2-3-2~-0~-
E:-------------------------------------------------------------
E:-------------|
B:-------------|
G:-2-4-5~~~~---|
D:-2-4-5~~~~---|
A:-0-2-3~~~~---|
E:-------------|
OUTRO
PLAY 11 TIMES 3rd VERSE
E:------------------
B:------------------
G:------------------
D:-5-2--8-8-7-------
A:-3-0--6-6-5-3-5-3-
E:------------------
E:-------------|
B:-------------|
G:-2-4-5~~~~---|
D:-2-4-5~~~~---|
A:-0-2-3~~~~---|
E:-------------|




Ваше мнение



Капча