Fish Fuck
We Kill Everything
Tabbed by Noel Stanko - [email protected]

Tune down to E-Flat...

-------------------------------------------------------------------|
|---------------------------------------------| Play this 2X's ---|
|---------------------------------------------|---------------------|
|--------5---------------5----5555-4-2--5555-7--77-7-77-77-7-5-4----|
|---5------2-2h3-5h7p5-----2--3333-2-O--3333-5--55-5-55-55-5-3-2----|
-----3----------------7--------------------------------------------|

Main Riff
----------------------------------|
|----------------------------------|
|----------------------------------|
|---7-77777-------7-777777---------|
|---5-55555-55-7--5-555555-55-7----|
-----------33-5-----------33-5----|

Why Are you My MOm? You figure out the Note counts.
------------------------------------------|
|------------------------------------------|
|------------------------------------------|
|---9-9999-55--9-9999-55--9-9999-55-7-7----|
|---7-7777-33--7-7777-33--7-7777-33-5-5----|
------------------------------------------|


Ваше мнение



Капча