Escape From The Mooselodge - GWAR
tabbed by: ryan b

Riff A: (once)
A-----------------------------------
Eb--4-4------4-4--------4-4------2--

Riff B: (once)
A-----------------------------------
Eb--4-4------4-4--------4-4------1--

Riff C: (once)
A---5-----5-----3-----5-----3--
Eb-----4-----4-----4-----4-----

Riff D: (once)
A---5-----5-----3-----5--------
Eb-----4-----4-----4-----4--3--

Riff C: (once)
Riff D: (once)
Riff C: (once)
Riff D: (once)
Riff C: (once)
Riff D: (once)
Riff C: (once)
Riff D: (once)
Riff C: (once)
Riff D: (once)
Riff C: (once)
Riff D: (once)
Riff C: (once)
Riff D: (once)

***rest for guitar (2:32 - 3:01)***

Riff C: (once) - softly
Riff D: (once) - softly
Riff C: (once) - softly
Riff D: (once) - softly

Riff E: (once)
A---5-5-5---------5-5-5---------3-3-------5-5-5---------3---333--
Eb---------4-4-4---------4-4-4-------4-4---------4-4-4-----------

Riff F: (once)
A---5-5-5---------5-5-5---------3-3-------5-5-5------------------
Eb---------4-4-4---------4-4-4-------4-4---------4-4-4--3---333--

Riff E: (once)
Riff F: (once)
Riff A: (once)
Riff B: (once)
Riff C: (once)
Riff D: (once)
Riff C: (once)
Riff D: (once)
Riff C: (once)
Riff D: (once)
Riff C: (once)
Riff D: (once)

Riff G: (once)
A------------------------
Eb--4-4-------------4-4--




Ваше мнение



Капча